Crvena Jabuka - Dobro Neka Svira

Transkripcija: NesoT


Intro:
  Dm      Am7       Gm6        Dm
|--------------------------------
|--------------------------------
|-7--5h7-----------------------7- x3
|---------7-7--7----5--7--5-3----
|--------------------------------
|--------------------------------
  Dm      Am7      Gm6          Dm
|--------------------------------
|--------------------------------
|-7--5h7-----------------------7- x1
|---------7-7--7---8-8----5-3----
|--------------------------------
|--------------------------------


Dm
Pustio sam kosu
      Am7  Gm6        Dm    Am7 Gm6
otkad nisi vise pored mene
Dm      Am7
24 sata trudim se
   Gm6        Dm     Am7 Gm6
da zivot bude dernek.

Ref:
            Dm   B A7
Ne treba mi vise
          Dm     B A7
samo malo smijeha
           Dm    B A7
prijatelja pravih
        Dm     B A7
i ociju plavih

Ne treba mi vise
samo malo mira
na radiju nesto
dobro neka svira.

Kamenice i orada
malo dobrog starigradskog vina
jedino me sebi vuku
Bascarsija i zlatna dolina.

Ref:
B
Putujem i pjevam
Am                       Gm
to je ono sto sam uvijek htio
B
kad ne budem hod'o zemljom
Am
bar cu znati
       Gm             Dm
da sam nekad bio...s' tobom.

Pustio sam kosu
otkad nisi vise pored mene
24 sata trudim se
da zivot bude dernek.

Ref:

Am7-575555
Gm6-3XX330

A moze i 'obicni' Am i Gm.