Crvena Jabuka - Hajde Dodji Mi

Transkripcija: pipss@mail.ru
Home         : http://2akordi.net/


INTRO:(pogledaj tab - ponavlja se vise puta u pjesmi)

Cm              Gm
Pogledaj sumrak srebrne boje
   Cm              Gm
Na ruke mi se spustio
Cm          Gm
Zarobile me oci tvoje
          Bb              D5
Tom crnom moru sam se pustio

U dusi su mi kuce uz prugu
A na licu vrisak vjetrova
Popio ja sam mladost u cugu
Prosao trista svjetova

Gm
Hajde dodji mi
Cm
Sa mnom ostani
Gm       Bb
Ja dobro znam
Gm
Ova pjesma je
Cm
Vise od molitve
       Eb5     D5       G5
Odavno ne mogu sanjati sam


O kako volim da te ljubim
Rekao sam rekla si
Nebo zemlju ja napravih
Nevaznim
Samo da si sretna ti

Ko uzima ko daje
Ko sve te stvari rjesava
I kad je pocetak
I kada kraj je
Nista se slucajno ne desava

INTRO:
                       Gm      
E|--------------------|------------------------|
B|--------------------|------------------------|
G|--------------------|---------2--2/3~--2-----|
D|--------------12\---|--5------------------5--|
A|--------------------|------------------------|
E|--------------------|------------------------|

Cm                       Gm        
------------------------|----------------------|
---------3--3h4~--3-----|----------------------|
----5----------------5--|-------2----3----5----|
------------------------|--5-------------------|
------------------------|----------------------|
------------------------|----------------------|

Bb                    Gm        
---------------------|-----------------------|
--3~-----------4/6---|--3---------3----------|
---------------------|---------5-------5--3--|
---------------------|-----------------------|
---------------------|-----------------------|
---------------------|-----------------------|

Cm                       D#5         D5      
------------------------|----------------------|
------------------------|----------------------|
----5----3--3h5~--3--2--|--3------5--2---------|
------------------------|-------------------3--|
------------------------|----------------------|
------------------------|----------------------|

G5                   Gm    
--------------------|---------5--5h6~--5-----|
--------------------|--8------------------8--|
--------------------|------------------------|
--3h5---------------|------------------------|
--------------------|------------------------|
--------------------|------------------------|

Cm                           Gm         
----8----10--10h11~--10--8--|-------5----6----8----|
----------------------------|--8-------------------|
----------------------------|----------------------|
----------------------------|----------------------|
----------------------------|----------------------|
----------------------------|----------------------|

Bb                        Gm           
--8/10~----------11/13---|--10------8-8h10~---8--6--|
-------------------------|--------------------------|
-------------------------|--------------------------|
-------------------------|--------------------------|
-------------------------|--------------------------|
-------------------------|--------------------------|

Cm                       D#5         D5 
----8----6--6h8~--6--5--|--6------8--5---------|
------------------------|-------------------6--|
------------------------|----------------------|
------------------------|----------------------|
------------------------|----------------------|
------------------------|----------------------|

G5                       
---------------------|
--6h8---------8\-----|
---------------------|
---------------------|
---------------------|
---------------------|