Crvena Jabuka - Ima Nesto Od Srca Do Srca

Transkripcija: Mr.Z  mr.z@mindless.com
Home         : http://2akordi.net/


Am             Dm Am F    E         Am
Oci tvoje boje nade,zaspati mi ne daju

zadnji komad mira krade ta suza na jastuku
ima rijeci koje bole skloni ih sa usana
kada stvari krenu dole samoca krug zatvara

Dm           Am           Dm          Am
Ima nesto od srca do srca,neka tanka nit
Dm        Am          F      E         Am
koja cini nase snove a ne da se..dirati

ti si moja rijetka ptica,kako da te ostavim
bez tvog tijela bez tvog lica kao da ne postojim
ima stvari koje trebaju a nikad se dese
neke druge opt ne daju,lako da se dokuce. 

***VERZIJA 2***
Transkripcija: Stevica Kikic (st_kikic@hotmail.com)
Home         : http://2akordi.net


Am             Dm    Am
Oci tvoje boje nade,
Fmaj7   E7      Am
Zaspati mi ne daju,
Am                Dm    Am
Zadnji komad mira krade,
Fmaj7   E7      Am
Ta suza na jastuku!

Ima rijeci koje bole,
Skloni ih sa usana,
Kada stvari krenu dole,
Samoca krug zatvara!

Dm                   Am
Ima nesto od srca do srca,
Dm         Am
neka tanka nit,
Dm             Am
koja cini nase snove,
Fmaj7   E7     Am
A ne da se dirati!

Ti si moja rijetka ptica,
Kako da te ostavim,
Bez tvog tijela bez tvog lica,
Kao da ne postojim!

Ima stvari koje trebaju,
A nikad se ne dese,
Neke druge opet ne daju,
Lako da se dokuce!

***VERZIJA 3***
Transkripcija: Mike Arsic (arsic_mike@hotmail.com)

Uvod:
e--------------------------------------
B--------------------------------------
G------------5-------------------------
D-----------------7--------------------
A-----5/7-------------5\3---0---3/5----
E--------------------------------------

***VERZIJA 4***
Transkripcija: Sanjin T. 
 
 Uvod:
 E|--------------------------------|
 B|--------------------------------|
 G|--------5-----------------------|
 D|------5----5h7-------5-5h7¨¨¨¨--|
 A|-->7------------5h7-------------|
 E|--------------------------------|


***VERZIJA 5***
Transkripcija: karabananakara@yahoo.ca


Uvod
E|-------------------------------------------------|
B|---------------------------------------8---8/10--|
G|-------5----------------------5~---5/9---9-------|
D|------5-7-----------------777----7---------------|
A|--5/7-----5-3-------------PM---------------------|
E|--------------3-3/5------------------------------|

E|-----------------------------------------------------
B|-8p5-8p5--8/10\...-----------------------------------
G|-5--------7/9\...-----7b8r7\5------------------------
D|-----------------------------7-5-5/7-----------------
A|-----------------------------------------------------
E|-----------------------------------------------------


  7b8r7= (bend and release)

  izdizanje zice za pola tona i vracanje na pocetni ton!