Crvena Jabuka - Mahala

Transkripcija: pipss@mail.ru
Tekst poslao : Kemo.H.
Home         : http://2akordi.net/


INTRO: |Bbm  |Ebm  |Bbm  |Ebm7 |  
       |Bbm  |Ebm  |Bbm  |F    | 


VERSE: |Bbm  |Gb   |Db   |F    |

Pijani koraci u zoru
i svadja preko puta
cadjavim cirom prema moru
sitna meza a rakija ljuta

Kisobrane popravljam
neko vice u ljetnom danu
moj poklon za njen rodjendan
prvi skok s kuce pod branu

RIFF1: |Bbm  |Bbm  |Gb   |F    |   X2

Cuvarkuca na kapiji
u svijetlo-plavom loncu
peraci peru ulice
i djeca na vasingtoncu.

Budjenje bez mljekara
ko noc bez ljubavi
bez raspjevanih postara
pismo ne dolazi.

REF: |Gb   |Ab   |Db   |F    | X2
Dobra moja mahala
kao da je zapala
zaspala je umrla.

BREAK: |Gb   |Ab   |Db   |F    | X2

Kukuruzi i kesteni 
mirisu ispred ljetnog kina
volim rane jeseni 
i kad me ljubis poslije puno vina.

Imo pa nemo sada znam
je kletva najveca
al me nikad nece biti sram
onog sto osjecam.

REF:
INTRO RIFF:
_KRAJ_


INTRO/OUTRO RIFF:
    Bbm                       Ebm                
E|--------------------6----|--------------------|
B|--------------------7----|--------------------|
G|--10-8-10----------------|--8--------------8--|
D|-----------8-------------|--8-----------------|
A|-------------------------|--------------------|
E|-------------------------|--------------------|
  Bbm                       Ebm7               
--------------------9----|--------------------|
--------------------9----|--7-----------------|
--10-8-10----------------|--6--------------8--|
-----------8-------------|--8-----------------|
-------------------------|--------------------|
-------------------------|--------------------|
  Bbm                       Ebm                
--------------------6----|--------------------|
--------------------7----|--------------------|
--10-8-10----------------|--8--------------8--|
-----------8-------------|--8-----------------|
-------------------------|--------------------|
-------------------------|--------------------|
  Bbm                    F                        
----------------------|--------------------------|
----------------------|--------------------------|
--6h8p6---------------|--------5--5h6----5-6-5---|
--------8-------------|-----8--------------------|
----------------------|--6-----------------------|
----------------------|--------------------------|


RIFF1:
    Bbm                         Bbm                      
E|--6------------------------|--6-----------------------|
B|--6--6-6-6--7--9--7--6-----|--6--6-6-6--7--9--7--6~---|
G|--6---------------------8--|--6-----------------------|
D|--8------------------------|--8-----------------------|
A|--8------------------------|--8-----------------------|
E|--6------------------------|--6-----------------------|
  Gb                        F                      
--2----------------------|--1---------------------|
--2----6--7--9--7--6-----|--6---------------------|
--3-------------------8--|--2--8--6--5----5--6~---|
--4----------------------|--3---------------------|
--4----------------------|--3---------------------|
--2----------------------|--1---------------------|
  Bbm                         Bbm                      
--6------------------------|--6-----------------------|
--6--6-6-6--7--9--7--6-----|--6--6-6-6--7--9--7--6~---|
--6---------------------8--|--6-----------------------|
--8------------------------|--8-----------------------|
--8------------------------|--8-----------------------|
--6------------------------|--6-----------------------|
  Gb                         F                        
--2-----------------------|--1----------------------|
--2--6--6--7--9--7--6-----|-(6)---------------------|
--3--------------------8--|--2--8--6--5--5--6--5~---|
--4-----------------------|--3----------------------|
--4-----------------------|--3----------------------|
--2-----------------------|--1----------------------|