Crvena Jabuka - Mjesece Reci

Transkripcija: Stojan Babic



Uvod:
  F#m        E     D      C#   F#m        E     D      C#
e|----------------------------|----------------------------|\
B|----------------------------|----------------------------||
G|-----------------2--4-------|-----------------2--4-------||x2
D|-----4p2---2--4-------------|-----4p2---2--4---------2~~-||
A|---------4--------------4~~-|---------4------------------||
E|-2-2------------------------|-2-2------------------------|/



Verse:
F#m      E         D           C#
Teska su putovanja u po hladne noci
Al saputnik nam pjesma bas u pravi cas
Iskustvo pomaze (ne razumem tekst)


e|--------------|Ako hocete da svirate u orginalu onda
B|--------------|umesto C# na kraju svakog stiha prve strofe
G|--------------|odsvirajte ovaj mali fill
D|--------------|
A|--4-4--4p2p0--|
E|--------------|


Bridge:
Hm        A          E
Al mjesec stari pati ko da zna za nas
E           D        C#      D
Gledam Kroz prozor i zapalim cigaru
E           D      C#                  C#sus4 C#
Gdje smo to sada u Ljubljani il' Mostaru


e|-----|
B|--7--|C#sus4
G|--6--|
D|--6--|
A|--4--|
E|-----|

Chorus:
F#m     E         D    A      *E *Esus4 *E  Esus4 E
Zrak treperi nebo gori kao lava
F#m     E         D     A      *E *Esus4 *E  Esus4 E
Mjesece reci jeli budna ili spava

U refrenu imate na kraju stihova ove zajebancije sa Esus4 i E
koje se odsviraju se na dve pozicije

prva je:
e|-----------|
B|-5--5--5---|*E *Esus4 *E
G|-4--2--4---|
D|-2--2--2---|
A|-2--2--2---|
E|-----------|

a druga je:
e|-----------|
B|-0--0--0---| Esus4 E
G|-2--1--1---|
D|-2--2--2---|
A|-2--2--2---|
E|-----------|