Crvena Jabuka - Ne Govori Vise Da Te Ne Vole

Transkripcija: sasayu1983@gmail.com


Intro:  F C Dm B F A Dm B C

e|-----8h10p8-8-10-8--------------------------------------|
h|-------------------11-10-8-10---10-11-10-8--------------|
g|-------------------------------------------10-9---------|
D|------------------------------------------------10------|
A|--------------------------------------------------------|
E|--------------------------------------------------------|

e|--------------------------------------------------------|
h|----------8-10-11-10-8-10----10-8-11---10-8-------------|
g|-------10-----------------------------------------------|
D|----10--------------------------------------------------|
A|--------------------------------------------------------|
E|--------------------------------------------------------|

F A Dm B (C)

I
F                  A
Reci sto da budem, bicu za tebe,
Dm                B
kazi sto da radim uradicu sve,
F                  A          Dm     B C
ali ne govori vise da te ne vole.

II
F                    A
Ako zelis prijatelja evo ti ramena,
Dm                     B
ako zelis moju ljubav, uzmi je za sva vremena,
F                  A          Dm      B   C     (F)
ali ne govori vise da te ne vole kad odnela si sve. x 3

Intro:

III
Recu hocu to da imam, ja cu ti stvoriti,
hoces li heroja ratnog otic cu se boriti
ali ne govori vise da te ne vole

IV
Kazi hocu sneg da pada, ja cu pricat' s Bogom,
hoces me za jednu noc, ma ljubi me i sutni nogom,
ali ne govori vise da te ne vole kad odnela si sve. x3

Intro:

ali ne govori vise da te ne vole... x mnogo