Crvena Jabuka - Nek Te On Ljubi

Transkripcija: pipss@mail.ru
Home         : http://2akordi.net/

INTRO: (pogledaj tablaturu)

E5     A5     B5    E5
Prodje avgust sreco moja
vrijeme da se rastane
bilo je izgleda previse lijepo
da nam tako ostane.

Mislim da bih ono vece
kad si otputovala
da mi nije zao svijeta
isplako tri potopa.

A5           B5
Evo sjedim i nagovaram mjesec
C#5                 A5
da u tvoju sobu zaviri
           B5
i da te on umjesto mene
B5        B5
probudi i zagrli.

B5     E5   A5   B5 E5
Nek te cuva,neka ti prica
A5  B5   E5 C#5 A5     B5   E5
nek te on ljubi kad ne mogu ja.

INTRO RIFF:|B     |E     |A   B  |
                  |E     |A   B  |
                  |E  C#m|A   B  |
                  |E     |


Kada prodju dani kisa
i iscure snijegovi
djeca beru prve tresnje
ti na mene pomisli.

A kad dodju bijela ljeta
i donesu noci nemirne
on ce meni da te vrati
sad nek bude kraj tebe.

REF:  X3
INTRO RIFF:

_KRAJ_


INTRO:

    E5      A5                                      
E|---------------------|---------------------------|
B|---------------------|------------2--------------|
G|----------2----------|--1/2----4-----4--2--1-----|
D|--2----x--2----------|------------------------4--|
A|--2----x--0----------|---------------------------|
E|--0----x-------------|---------------------------|

  B5      E5                                      
---------------------|---------------------------|
---------------------|------------2--------------|
--4----x-------------|--1/2----4-----4--2--1-----|
--4----x--2----------|------------------------4--|
--2----x--2----------|---------------------------|
----------0----------|---------------------------|

  E5      A5                                     
---------------------|--------------------------|
---------------------|------------2-------2--3--|
----------2----------|--1/2----4-----4----------|
--2----x--2----------|--------------------------|
--2----x--0----------|--------------------------|
--0----x-------------|--------------------------|
                         >INTRO RIFF:
                           B5                      
------------------------|-------------------------|
--5---------------------|----0--0--0--0-----------|
-------1--2--4----1-----|----------------2--2--1--|
---------------------4--|-------------------------|
------------------------|-------------------------|
------------------------|-------------------------|

  E5                     A5         B5           
----------------------|-------------------------|
----------------------|--2----2-----------------|
--1~---------1--2--4--|----------4--4--2--2--1--|
----------------------|-------------------------|
----------------------|-------------------------|
----------------------|-------------------------|

  E5                     A5         B5           
----------------------|-------------------------|
----------------------|--2----2-----------------|
--1~---------1--2--4--|----------4--4--2--2--1--|
----------------------|-------------------------|
----------------------|-------------------------|
----------------------|-------------------------|

                                             <
  E5         B5            E5                 
------------------------|--------------------|
------------------------|--------------------|
--1~---2--1-------1-----|--------------------|
-------------4~------4--|----2--2------------|
------------------------|--------------------|
------------------------|--------------------|


    E5      A5            B5      E5          
|----------------------|---------------------|
|----------------------|---------------------|
|*----------2----------|--4----x-------------|
|*--2----x--2----------|--4----x--2----------|
|---2----x--0----------|--2----x--2----------|
|---0----x-------------|----------0----------|


  E5      A5                                   
---------------------|-----------------------|
---------------------|-----------------------|
----------2----------|----------------------*|
--2----x--2----------|----------------------*|
--2----x--0----------|-----------------------|
--0----x-------------|--5p-0----5p-0---------|