Crvena Jabuka - Nekako S Proljeca

Transkripcija: Beeman


UVOD: Em D Em G D

:-----------------3-2-0--------3/7--5-3--3-2-0---------------
:-------3-5~--5-3--------3-3--------------------5~-5-3---3---
:--2-4-------------------------------------------------4-----
:------------------------------------------------------------
:------------------------------------------------------------
:------------------------------------------------------------

               Em          G        D Dsus4 D
  Nekako s proljeca,uvijek meni doluta
                                     FIG 1
              Em    G            D Dsus4 D Dsus2 D
  Neka ceznja tamna,tiha mudrost davna
             G       D         G         D
  Spustam ja stare kofere na perone sudbine
              G         D
  To je miris zrelih godina
      Em           G     A      D Dsus4 Dsus2 D
  Moj kaput bas je tezak najdraza

                                               FIG 2
  nekako s proljeca,ja se sjetim starih drugova
                                      FIG 4
  probude se u meni svi derneci pijani
  Tad nosim stare cipele one znaju moje ulice
  To je boja crno-ponocna
  Moji koraci bas su teski najdraza


REFREN:
          A
  I opet taj osjecaj samoce
           D
  Kad nece nikog mene krene i hoce
         A
  i opet mrakom svoje pjesme bojim
               FIG 5
           G   A            D Dsus4 D Dsus2 D
  Pijan od zelje za usnama tvojim

                Em     G      A       D Dsus4 D Dsus2 D
  Sav sam ti od ludila nekako s proljeca

SOLO: Em G D Em G D
  :------------------------5------------------------------------------------------
  :-----5/7-3-5--5-3--5/7-----7-5--3/5-3-------3----5~--3--3----5~--3--3----------
  :--2-------------------------------------2h4---4--------4--4--------4--4--2/4-2-
  :-------------------------------------------------------------------------------
  :-------------------------------------------------------------------------------
  :-------------------------------------------------------------------------------

   --------------
   --------------
   -4-2----------
   -----4-2-0-0--
   --------------
   --------------

                                        FIG 6
   Nekako s proljeca sjeti mene nepravda
                                       FIG 7
   napovijede poraze i sve lazne obzire
   Napravim racun prastanja popijem pusta mastanja
   to je okus lijepog kajanja

   moji kapci bas su teski najdraza

                                      FIG 8
   Nekako s proljeca noc mi oci otvara            FIG 9
   drijemam san da uhvatim nema dana da ne poludim
   pa hocu da te vodim ja pravom sunca jugom maslina
   to je dodir tvojih bedara

   moja dusa bas te voli najdarza

REFREN:

      I opet taj....
      kad nece nikog....
      i opet mrakom svoje pjesma bojim
                    FIG 10
      pijan od zelje       za usnama tvojim
                                            FIG 11
      sav sam ti od ludila nekako s proljeca
                                            FIG 12
      sav sam ti od ludila nekako s proljeca
                                            FIG 13
      sav sam ti od ludila nekako s proljeca
                                            FIG 14
      sav sam ti od ludila bez tebe s proljeca


FIG 1:
E:-2/3-3-2-0-0h2-0-
H:-----------------
G:-----------------

FIG 2:
:--------------------
:-----8-7-5---5h7p5--
:-7h9-------7--------
:--------------------
:--------------------
:--------------------

FIG 4:
:-10-10h9-7----------------------
:------------10-8-7-10-7---7-----
:------------------------9---9-7-
:--------------------------------
:--------------------------------
:--------------------------------

FIG 5:
:----------------
:-----2-3-2------
:-2h4-------4-2--
:----------------
:----------------
:----------------

FIG 6:
:-10h12-10-9---------------
:------------12-10---------
:------------------12-7-7--
:--------------------------
:--------------------------
:--------------------------

FIG 7:
:---3-2-0------
:-3-------5-3--
:--------------
:--------------
:--------------
:--------------

FIG 8:
:----------------------
:-7/9-7/5---5-7/9-5----
:---------7---------9--
:----------------------
:----------------------
:----------------------

FIG 9:
E:-15-14----------
H:-------15-15b17-
G:----------------

FIG 10:
E:-----------
H:-7-8-5-5/7-
G:-----------

FIG 11:
E:-----------------------
H:-7-7-8-7-5-7h8p7-8-7-5-
G:-----------------------

FIG 12:
E:-15b14--------------
H:-------17b15-19-19b-
G:--------------------

FIG 13:
E:-----3-2-0-
H:-3-5-------
G:-----------

FIG 14:
E:-3--2/3/2-
H:----------
G:----------


***VERZIJA 2***
Transkripcija: ???


Kemal Monteno & Crvena Jabuka

Intro:
Em   G   D  Dsus4  D   Dsus2  D
Em   G   D  Dsus4  D   Dsus2  D (pauza)

Verse1:

 Nekako s
Em  G  D  Dsus4  D  Dsus2  D
proljeca, uvek meni doluta
D  Em  G  D  Dsus4  Dsus2  D
neka ceznja tamna, tiha mudrost davna
D  G  D  Dsus4  D
Spustam ja stare kofere
D  G  D  Dsus4  D
na perone sudbine
D  G  D  Dsus4  D
to je miris zrelih godina
D  Em  G  A  D  Dsus4  D  Dsus2  D (pauza)
moj kaput bas je tezak najdraza

Verse2(svira se isto kao i verse1)

Nekako s
proljeca,ja se sjetim starih drugova
probude se u meni svi dernjeci pijani
tad nosim stare cipele
one znaju moje ulice
to je boja crnoponocna
moji koraci bas su teski najdraza(pauza)

Ref:
I opet
A  D   Dsus4  D
taj osjecaj samoce,kad nece nikog mene krene i hoce
D  A  G  A  D  Dsus4  D  Dsus2  D
i opet mrakom svoje pesme bojim,pijan od zelje za usnama tvojim

(pauza)

Sav sam ti od
Em  G  A  D  Dsus4  D  Dsus2 D
ludila, nekako s proljeca
D  Em  G  A  D  Dsus4  D  Dsus2  D
Sav sam ti od ludila, nekako s proljeca

Solo:
Em  G  D  Dsus4  D  Dsus2  D
Em  G  A  D  Dsus4  D  Dsus2  D (pauza)

Verse3:(svira se naravno isto kao i verse 1:)

Nekako s
proljeca,sjeti mene nepravda
na pobjede poraze
i sve lazne obzire
napravim racun prastanja
popijem pusta mastanja
to je ukus lijepog kajanja
moji kapci bas su teski, najdraza (pauza)

Verse4:(svira se naravno isto kao i verse 1:)

Nekako s
proljeca, noc mi oci otvara
nemam san da uhvatim
nema dana da ne izgubim
a hocu da te vodim ja
tragom sunca, jugom maslina
to je dodir tvojih bedara
moja dusa, bas te voli, najdraza (pauza)

Ref:

***VERZIJA 3***
Transkripcija:Mr.Z  mr.z@mindless.com
Home         :http://2akordi.net/


C            Dm   F               C
Nekako s proljeca,uvijek meni doluta
             Dm   F             C
Neka ceznja tamna,tiha mudrost davna
            F       C       F          C
Spustam ja stare kofere na perone sudbine
            F          C
To je miris zrelih godina
     Dm           F   G      C
Moj kaput bas je tezak najdraza

Nekako s proljeca,ja se sjetim starih drugova
probude se u meni svi derneci pijani
Tad nosim stare cipele one znaju moje ulice
To je boja crno-ponocna
Moji koraci bas su teski najdraza


       G
I opet taj osjecaj samoce
          C
Kad nece drugog mene krene i hoce
        G
i opet mrakom svoje pjesme bojim
         F    G            C
Pijan od ceznje za usnama tvojim
                  Dm F    G         C
Sav sam ti od ludila nekako s proljeca

Nekako s proljeca,sjeti mene nepravda
Na pobjede poraze,i sve lazne obzire
Napravim racun prastanja popijem pusta mastanja
To je ukus lijepog kajanja
Moji kapci bas su teski najdraza

Nekako s proljeca,noc mi oci otvara
Nemam san da uhvatim,nema dana da ne izludim
A hocu da te vodim ja tragom sunca jugom maslina
To je dodir tvojih bedara
Moja dusa bas te voli najdraza


***VERZIJA 4***
 D            Em          G        D
Nekako s proljeca,uvijek meni doluta
             Em     G           D
Neka ceznja tamna,neka mudrost davna
            G       D           G      D
Spustam ja stare kofere na perone sudbine
              G         D
To je miris zrelih godina
     Em          G     A      D
Moj kaput bas je tezak najdraza

nekako s proljeca,ja se sjetim starih drugova
probude se u meni svi derneci pijani
Tad nosim stare cipele one znaju moje ulice
To je boja crno-ponocna
Moji koraci bas su teski najdraza


D       A
I opet taj osjecaj samoce
          D
Kad nece drugog mene krene i hoce
         A
i opet mrakom svoje pjesme bojim
         G     A           D
Pijan od ceznje za usnama tvojim
               Em     G    A       D
Sav sam ti od ludila nekako s proljeca


***VERZIJA 5***
Transkripcija: Sale.S. (sale@asak.at)


INTRO:
e------------------------------------------------------------
h------------------------8--8^7-----------------10/12-10^12--
g-------7-9-9-9--7-9--7----------9-7-7-----7-----------------
D--7/9-------------------------------------------------------
E------------------------------------------------------------

    ------------------------------
    -8--8-8-7---------------------
    ----------9--9--9-(10)-9-7---7
    ---------------------------9--
    ------------------------------

SOLO:
e----------------------------------------------------------
h-----9-(11)-9-7-9--9--9-7-------10------------------------
g--7------------------------9/11----11-9-7-7-9-7------7----
D-------------------------------------------------7/9---9--
A----------------------------------------------------------
E----------------------------------------------------------

e----------------------------------------------------------------
h-----------------10-10-------------------7----------------------
g-9-(11)-9-7-9-7--9--11----9-7--9-7-------7----------------------
D------------------------------------7-9--7---7------------------
A-------------------------------------------------10-9-7---------
E---------------------------------------------------------10--10-

***VERZIJA 6***
Transkripcija: ???


UVOD:
:-----------------3-2-0------3/7--5-3--3-2-0---------------
:-------3-5~--5-3--------3-3------------------5~-5-3---3---
:--2-4-----------------------------------------------4-----
:----------------------------------------------------------
:----------------------------------------------------------
:----------------------------------------------------------

SOLO:
:------------------------5---------------------------------
:-----5/7-3-5--5-3--5/7-----7-5--3/5-3-------3----5~--3--3-
:--2-------------------------------------2-4---4--------4--
:----------------------------------------------------------
:----------------------------------------------------------
:----------------------------------------------------------

    ------------------------------------
    ---5~--3--3-------------------------
    4--------4--4---2/4-2---4-2---------
    -----------------------------4-2-0--
    ------------------------------------
    ------------------------------------

/= slide


***VERZIJA 7***
Transkripcija: Zoran123 - zoran.cavuzic@kr.htnet.hr

intro
e|------------------------------------------------------------
h|---------------------7h8-8-8p7------------10/12--10-12--8~--
g|-----7-9-9~--9-9p7-------------9--7-7~----------------------
D|-7h9--------------------------------------------------------
A|------------------------------------------------------------
E|------------------------------------------------------------

    --------------------------|
    -8-7----------------------|
    ------9-9--9b-9r--7----7~-|
    --------------------9-----|
    --------------------------|
    --------------------------|

solo:
e|----------------------------------------------------------------
h|----------------------10-------------------------------------10-
g|---9br-7-9~--9p7-9/11-----11/9--7h9-7-------7---9b--9p7-9p7--9b-
D|-7--------------------------------------7h9---9-----------------
A|----------------------------------------------------------------
E|----------------------------------------------------------------

    ---------------------------|
    ------------7--------------|
    -9p7-9p7----7--------------|
    ---------7h-7--7-----------|
    -----------------10-9-7-5-5|
    ---------------------------|