Crvena Jabuka - Ni Zadnji Ni Prvi

Transkripcija: Ljubisa Prica [lj_prica@hotmail.com]
Home         : http://2akordi.net


Intro: 
(F, Am, E, Am)

E-----------------1-1-0-0^1^0---0------------------------------0-1-0--|
H---------------1-------------3---4/5-3-3-1-1-0--0-1-0---0-1-3--------|
G--2-1-0-----------------------------------------------2--------------|
D--------4-3-/7-------------------------------------------------------|
A---------------------------------------------------------------------|
E---------------------------------------------------------------------|

E---8-7-8\1-------10-12-13-12-12^13^12-10----|
H-5---------6-5-6------------------------13--|
G--------------------------------------------|
D--------------------------------------------|
A--------------------------------------------|
E--------------------------------------------|

E-------------------------------------------|
H--12-10-10-9-9-----------------------------|
G--------------10-9--9----------------------|
D------------------12-12-12-10-10-9-9^10----|
A---------------------------------------12--|
E-------------------------------------------|

Am
Sve pocinje da me vrijedja
G
Sjecanja sve su rjedja
F
Puno toga ispod casti
E
Zagrljaji su bez strasti
Dm   E     Am 
i bez cudjenja

Ne zalim se draga moja
Ti ces uvijek biti svoja
Ja cu mudro biti tvoj
A moj zivot samo moj
Do novog budjenja

REFREN:

	Dm
	Nisam ja, vjeruj
	   Am 
	Ni zadnji, ni prvi
	E                Am  Am7 
	Sto te voli, curice
	Dm             Am
	Al' srce mi se polako mrvi
 	     E                   Am  Am7   
	Nosi ih, to su tvoje mrvice

[Solo1]
(F, Am, E, Am)

E------------------------------------------------------------------10-12-|
H-10-12-13-----------10-12-13-------13-12-12-10-9-10-12-13-10-12-13------|
G---------10-10-9-10---------9-9--9--------------------------------------|
D-------------------------------12---------------------------------------|
A------------------------------------------------------------------------|
E------------------------------------------------------------------------|

E-10-12-13------------------------------------------------------------------|
H---------10-10-9-10--10-12-13-------12-10-10-9-9---------------------------|
G-----------------------------9-9--9-------------10-9--9--------------------|
D--------------------------------12------------------12-12-12-10-10-9-9^10--|
A-------------------------------------------------------------------------12|
E---------------------------------------------------------------------------|

Na ulici sam sebe sreo 
I sam sebe psov'o, kleo
Nema ljeta, nema zime
Ni moj zivot nema ime
A ni prezime

Tebe volim ocigledno
Al' nikad nismo bili jedno
Uspio sam uvjeriti
Sebe da cu pobijediti
Ali bez tebe

REFREN...

[Solo2]
(F, Am, E, Am)

E-----------------1-1-0-0^1^0---0------------------------------0-1-0--|
H---------------1-------------3---4/5-3-3-1-1-0--0-1-0---0-1-3--------|
G--2-1-0-----------------------------------------------2--------------|
D--------4-3-/7-------------------------------------------------------|
A---------------------------------------------------------------------|
E---------------------------------------------------------------------|

E---8-7-8\1-------13-13-12-12-10----11^12-10-10-----------------------|
H-5---------6-5-6---------------13-------------13-13-12-13-12-10--10--|
G---------------------------------------------------------------13----|
D---------------------------------------------------------------------|
A---------------------------------------------------------------------|
E---------------------------------------------------------------------|...

Na ovaj solo se nadovezuje Solo1, pa ga necu ponovo pisati.