Crvena Jabuka - Nova Ljubav

Transkripcija: Ivica - Ida@post.hinet.hr
 

        D   A               G  A                   D
 I opet je, nova ljubav rodjena ljepsa, mladja sretnija
 Hm                Em  Gm                 D     A
 ako bog da pametnija, nasmijana kao ti i ja...
 
rif : 
      E--------------------
      H--------------------
      G-------------------- 
      D----------0--2p0----
      A----0--2------------
      E--------------------

D        Hm    G           A
 Ja samo zelim sunce, more nebo plavo,
D        Hm      G            A           
 i pravu ljubav, valjda na to imam pravo.
D        Hm    G    A         D
 Lica od sinoc, u jutro zaboravim,
D          Hm    G      A        Hm
 a sve sto nadjem, poljubim i ostavim.
 Gm                    D                A
 Svakog ceka mrva ljubavi.       aaaa   na  na na na na
D        Hm    G        A          D
 Necu da sjedim vise na dvije stolice,
D        Hm    G     A           D
 ja hocu ljubav a ne njene dvojnice.
D           Hm    G        A             D
 Trazio sam srecu, nema je kad mi treba,
D       Hm  G        A           Hm
 pruzao ruku a svoju nitko ne da mi.
Gm                     D      A
 Svakog ceka mrva ljubavi     na na na na


        D   A               G  A                   D
 I opet je, nova ljubav rodjena ljepsa, mladja sretnija
 Hm                Em  Gm                 D            A
 ako bog da pametnija, nasmijana kao ti i ja... aaaa   na  na na na na

        D   A               G  A                   D
 I opet je, nova ljubav rodjena ljepsa, mladja sretnija
 Hm                Em  Gm                 D      A
 ako bog da pametnija, nasmijana kao ti i ja     na  na na na na


solo keyboards ~  D - Hm - G - A
                  D - Hm - G - A
solo git. ~
           Hm  Gm                       D
      E--------6-7p6-----------------------
      H----v7---------8-8------------------
      G-------------------7-7---5-3--5--7--
      D------------------------------------
      A------------------------------------
      E------------------------------------
          A                                           D
      E--------------------------12s13s14--12-10-12--10-
      H----------------------10-------------------------
      G--------------9--11p9----------------------------
      D---7--7s9s11-------------------------------------
      A-------------------------------------------------
      E-------------------------------------------------

D         Hm   G            A            D
 Sad opet volim ne treba mi nista vise,
D             Hm  G       A            D
 dosta ni je frke hocu da zivim tise.
D         Hm  G          A           D
 Slobodno mogu i u sreci pretjerati,
D          Hm   G          A         Hm
 nasao sam nekog kome mogu vjerovati ja.
Gm                     D          A
 Svakog ceka mrva ljubavi   aaaa  na na na na

        D   A               G  A                   D
 I opet je, nova ljubav rodjena ljepsa, mladja sretnija
 Hm                Em  Gm                 D            A
 ako bog da pametnija, nasmijana kao ti i ja  aaaa   na  na na na na   4x
       D
I opet je(break)


            E A D G H E
 G akord :  3 2 0 0 3 3