Crvena Jabuka - Principessa

Transkripcija: Ivica - Ida@post.hinet.hr


uvod:     G - Hm - C - D

E------------------------------------------
H-----8--10p8------------------------------
G--------------9--7------------------------
D--------------------9--7s5--7--5--7--7s9--
A------------------------------------------
E------------------------------------------

E------------------------------------------
H-----8--10p8------------------------------
G--------------9--7------------------------
D--------------------9--7s5--7--5----------
A------------------------------------------
E------------------------------------------

E------------8-----7----5----------3-------
H------------8-----7----5----------3-------
G-----7s8s9-------------------3s4----------
D------------------------------------------
A------------------------------------------
E------------------------------------------

G                    Hm
Lutao sam gradovima, cega sve na svijetu ima,
C
puno suza, premalo smijeha.
G                     Hm
Mogao sam da poludim, samom sebi da presudim,
C
slatka bijase jabuka grijeha.
Hm       C    D                      Hm           C
Uzavrela krv, vozi se venama, al' prepoznah te za tren, 
     D
medju svim tim zenama.
 
G             Hm          C      D
Da nisam sreo tebe Principessa,
         G       Hm          C        D
sve sto imao sam kule su od pijeska.
G              Hm         C  
Dok nisam sreo tebe Principessa,
           G       Hm        C
da te nisam upoznao i na ludi kamen stao.

uvod : G - Hm - C - D

G                    Hm
Plesala si lakonoga, cista mezimica Boga,
C
nisam znao da takve postoje.
G                      Hm
Nikad pomislio ne bih, da cu postat dobar sebi,
C
rekle su mi sve oci tvoje.
Hm          C     D                Hm         C
Tijelo dusi hram, lako je postalo, necu ni da znam, 
       D
sta bi od mene ostalo.

G             Hm          C      D
Da nisam sreo tebe Principessa,
         G       Hm          C        D
sve sto imao sam kule su od pijeska.
G              Hm         C  
Dok nisam sreo tebe Principessa,
           G       Hm        C
da te nisam upoznao i na ludi kamen stao.


uvod : gitara : G - Hm - C - D
solo : piano

G             Hm          C      D
Da nisam sreo tebe Principessa,
         G       Hm          C        D
sve sto imao sam kule su od pijeska.
G              Hm         C  
Dok nisam sreo tebe Principessa,
           G       Hm        C
da te nisam upoznao i na ludi kamen stao.

G             Hm          C      D
Da nisam sreo tebe Principessa,
     G       Hm          C        D
sve sto imao sam kule su od pijeska.
G             Hm         C  
Da nisam sreo tebe Principessa,
            G       Hm           C          D
da te nisam upoznao sta je zivot meni znao, 
   G 
da nisam sreo tebe Principessa.