Crvena Jabuka - Riznice Sjecanja

Transkripcija: Big Daddy (big-daddy@t-online.de)
Home         : http://2akordi.net

                  
E                F#m   B                E
gdje me nose ove rjeke gdje su tvoje obale
E               F#m    B                E 
da li su mi jos daleke dal´ su iste ostale
A           B                E            C#m
mene zovu daljine al´ jos po nekad vracam se
A           B                  E
nosen dahom topline u one nase ulice

ref   
     A         B  E      C#m       A       B 
tamo gdje bila je kisa i duga nebo samo za nas 
E        C#m   A        B
zatvorim oci i cujem ti glas
      E   C#m           A    B                 E
vatra velika kad ceznja otvara(A B)riznice sjecanja
                         
gdje me nosi ovo more u kojoj kapi spavas ti
vrijeme nam stavlja bore polako nas razdvoji 

ref 2x           


***VERZIJA 2***
Transkripcija: www.kristijankiking@gmail.com


INTRO: E A H

(00:11)

E||------------------------------------|
B||------------------------------------|
G||-------4h6-4-----------------4h6-4--|
D||-6p4h6-------7-6-4-4s6-6p4h6--------|
A||------------------------------------|
E||------------------------------------|

(00:30)   (00:35)    (00:40)     (00:50)

E||------|--------|-------------|-------------|
B||-2s4--|-6s4-2--|-------------|-5s4-2-------|
G||-2s4--|--------|-----4s1-4h6-|-------4-1h2-|
D||------|--------|-2h4---------|-------------|
A||------|--------|-------------|-------------|
E||------|--------|-------------|-------------|

(00:56)   (01:06)     (01:11) X 2

E||-----|-----------|--------------|
B||-2s4-|---------5-|-5s7s9-9h10p9-|
G||-2s4-|-----4h6---|--------------|
D||-----|-4h6-------|--------------|
A||-----|-----------|--------------|
E||-----|-----------|--------------|

(01:29)

E||-----------------------|
B||---------------------5-|
G||-------4h6-4-----4h6---|
D||-6p4h6-------4h6-------|
A||-----------------------|
E||-----------------------|

GLAVNI SOLO:

E||------------------------------------|
B||------------------------------------|
G||-------4h6-4-----------------4h6-4--|
D||-6p4h6-------7-6-4-4s6-6p4h6--------|
A||------------------------------------|
E||------------------------------------|

E||---------|-------7h9-7s5p0-7-5s4p0-5s4-|-12s11-7-9s11s7-|
B||-7b9r7s9-|-9p7h9-----------------------|----------------|
G||---------|-----------------------------|----------------|
D||---------|-----------------------------|----------------|
A||---------|-----------------------------|----------------|
E||---------|-----------------------------|----------------|


ZADNJI SOLO:

Isto ko prije samo kraj je:
E||---------|-------7h9-7-----------|-12s11-7-9s11-7-7-|
B||-7b9r7s9-|-9p7h9-------10-9s7s9--|------------------|
G||---------|-----------------------|------------------|
D||---------|-----------------------|------------------|
A||---------|-----------------------|------------------|
E||---------|-----------------------|------------------|