Crvena Jabuka - Sad Je Srce Stijena

Transkripcija: pipss@mail.ru
Home         : http://2akordi.net


INTRO: (pogledaj tab)

Dm               Gm  Dm
Prosli su dani i godine
                 A    Dm
Kako si mi rekla vodi me

Plakale su noci kisama
Muziku je ubila tisina

Tvoje ime znali su znali svi
Sto su bar jednom sa mnom pricali

Dugo nisu dolazili laki sni
Nocima su plasili me koraci


Dm            Gm
A sad je srce stijena
  C      F
I ne place
Dm         Gm
Ne boji se koraka
A    Dm
Uvece


INTRO RIF:(svirati kao tamburicu)

  Dm                     Gm            
E|------------5---------|------------------------|
B|--6----8----6----6----|--13--------11----10----|
G|--7----9---------7----|--14--------12----10----|
D|----------------------|------------------------|
A|----------------------|------------------------|
E|----------------------|------------------------|

C                        F     
------------------------|--------------------|
--8----8----13----11----|--10----------------|
--9----9----14----12----|--10----------------|
------------------------|--------------------|
------------------------|--------------------|
------------------------|--------------------|

Dm                     Gm                   
------------5---------|-----------------------|
--6----8----6----6----|--11--------10----8----|
--7----9---------7----|--12--------10----9----|
----------------------|-----------------------|
----------------------|-----------------------|
----------------------|-----------------------|

A                      Dm                   
----------------------|-------------------|
--5----6----8----5----|-------------------|
--6----7----9----6----|--7----------------|
----------------------|--7----------------|
----------------------|-------------------|
----------------------|-------------------|