Crvena Jabuka - Stizu Me Sjecanja

Transkripcija: pipss@mail.ru
Home         : http://2akordi.net


INTRO:
D Dsus2 D
D Dsus2 Gmaj7

INSTRUMENTAL:
|G   D   |G   D   |G  F#m |Em  A   |
|D

D
Ne gori vise svjetlo tamo
Em                A
gdje sam te davno cekao
G              A
od svega tinja tuga samo
A            D
sve sam ti rekao.

I ne pitaj me kako mi je
kad vidis dobro kako je
svakom jednom lose krene
meni ne prestaje.

      G
Stizu me sjecanja
       D
na sva davna proljeca
     A
i na nase poljupce
      G           D
tamo, pokraj Miljacke.

      G
Stizu me godine
     D
kada covjek zastane
      A
i kad proslost pogleda
      A         D
nekim drugim ocima.

Kad slomis granu tuzne vrbe
u zemlju kad je posadis
izraste neko novo drvo
staro zaboravis.

Al' moja prica i nije moja
nista ja nisam birao
i moj je korijen gorio samo
a ja sam svirao.


***VERZIJA 2***
Transkripcija: MD


UVOD 1: (2x)
e|-2--------0--------2---2--------------------2---------0---------2----
H|----3--------2-------------3----------------3--3----------2---------3
G|-------2--------2--------------2---------2--------2----------2-------
D|-----------------------------------0---------------------------------
A|----------0-------------------------------------------0--------------
E|-----------------------3--------------------------------------------3

UVOD 2:
e|------------10---10--9--------------------10---12--10----------
H|--7--7--10--------------10--10--------10---------------12--10--
G|----------------------------------11---------------------------
D|---------------------------------------------------------------
A|---------------------------------------------------------------
E|---------------------------------------------------------------

e|----------10---10--9-------------------------------------------
H|------10--------------10--10--------10--10------------3--------
G|--11----------------------------11-----------11--9-------------
D|---------------------------------------------------------------
A|---------------------------------------------------------------
E|---------------------------------------------------------------


***VERZIJA 3***
Transkripcija: Beeman

  SOLO 1:
  :----------------10--10-9-----------------10--12b10-10-----------
  :-5h7-7-7/10-(10)----------10-10-------10---------------12-10----
  :-----------------------------------11---------------------------
  :----------------------------------------------------------------
  :----------------------------------------------------------------
  :----------------------------------------------------------------

  :-------10--10-10b9-----------------------------
  :----10-------------10-10------10-10--------5---
  :-11------------------------11---------9h11-----
  :-----------------------------------------------
  :-----------------------------------------------
  :-----------------------------------------------

  SOLO 2: svira se zadnji put,od prvog se razlikuje samo po zavrsetku
  :----------------10--10-9----------------10--12b10-10-12-14--
  :-5h7-7-7/10-(10)----------10-10------10---------------------
  :----------------------------------11------------------------
  :------------------------------------------------------------
  :------------------------------------------------------------
  :------------------------------------------------------------

  :-------10--10-10b9--------------------------------------
  :----10-------------10-10------10-10h12-10--7----5h7-5---
  :-11------------------------11----------------9----------
  :--------------------------------------------------------
  :--------------------------------------------------------
  :--------------------------------------------------------

   ovaj(10) moze ali i ne mora biti