Crvena Jabuka - Tuga, Ti I Ja

Transkripcija: pipss@mail.ru
Album: Tamo gdje ljubav pocinje (1989)
B=H


|Em    |D    |Am G  |D     |   x puta

Em
Evo me noci,
G               Em
stara prijateljice.
Em
Opet njoj cu poci,
G                  Em
Niz duge, puste ulice.

Am                 D
Tamo gdje strahovi prestaju,
D                   Em
obraz mi grije njen dlan.
Am                 Em
Na njemu moje usne nestaju,
          B
Beskrajno sam, uzdah joj znam.

|Em    |D    |Am G  |D     |   x puta

Casti me noci,
stara prijateljice.
U casu natoci,
zudnju da mi slomije.

Zar nisam dovoljno gubio,
ko ce izmjeriti bol.
Do ocaja ljubio,
namjerno bjezao, da bih se vracao.


Em                    G    D    Em
Opet mi se budi tuga, tuga najveca.
Em                          G      D    Em
Koju nosi snijeg s planina, vjetar ravnica.
Am           D          G    D/F#    Em
Koga sad joj srce voli, kazi nek jos jace boli.
Am       D               Em   (+ B pri kraju pjesme)
Idemo do dna, tuga, ti i ja.


|Em    |D    |Am G  |D     |   x puta +
|Em    |     |Am G  |D     |   x puta

Pozdravljam te noci,
stara prijateljice.
I ovaj krug ce proci,
Nece stic' me kajanje.

Sta je ovo proljece,
spram njeznih godina.
Poziv njen me pokrece,
Cak i sa dna, isto izgleda.

Opet mi se budi tuga ... x2

OUTRO:
Em  D  Am    Am-G  D
       Tuga, ti, i ja,
Em  D  Am    Am-G  D
       Tuga, ti, i ja,
Em  D  Am    Am-G  D
       Tuga, ti, i ja,
Em  D  Am    Am-G  D
       Tuga, ti, i ja ...


       

***VERZIJA 2***
Transkripcija: Adi - adiazrael@hotmail.com
Home         : www.2akordi.net


Uvod:
E|---<7>-----------<7>--<12>----|-------------------0--------------|
B|---<7>--------<7>-------------|--------------------3-----3/5-----|
G|---<7>-----<7>----------------|------0---------0----0----0/0-----|
D|------------------------------|----4---4------4-------4--4/6-----|
A|------------------------------|--5-------5---5---------5-5/7-----|
E|------------------------------|----------------------------------|

E|----------------------|--8-7-------------------|  |-------------------------------|
B|----------------------|-----8------------------|  |-------------------------------|
G|----------------------|------9~---12~\7~-/12\5-|  |--4x-2----------7-4~-----------|
D|--2/4----------7------|------------------------|  |-------4-4-5-7-----------------|
A|--3/5---9-9-10--------|------------------------|  |-------------------------------|
E|----------------------|------------------------|  |-------------------------------|


Bridge:
E|----0x----0---2-----------------|
B|----0x----0---3---7^8^7---------|
G|----0x----0---2---------9-7-----|
D|--2-2x--2-2---0-------------9-7-|
A|--2-2x--2-2---------------------|
E|--0-0x--0-0---------------------|

E|----0x----0---2-----------------|
B|----1x----1---3---7^8^7---------|
G|--2-2x--2-2---2---------9-7-----|
D|--2-2x--2-2---0-------------9---|
A|--0-0x--0-0---------------------|
E|--------------------------------|