Crvena Jabuka - Tugo, Nesreco

Transkripcija: Carobnjak & Nebojsa


Gm          Cm          Gm
Ona dolazi, jednostavno osjetim,
Eb              D         Gm
mozda mi sapne, snijeg sa grane,
Gm              Cm       Gm      
sta mi donosi - kusur od ljubavi 
Eb            D       Gm
il malo srece minulih dana

Eb               D
ne znam kako, al znam, ona dolazi.

Kad suze govore, istina razvaljuje,
i svaka rijec, me obori s nogu
to sto si varala, to bih ti oprostio,
al sto si mene, to ne mogu.

Cm Gm  Eb   F    Bb 
Tu_go, tugo nesreco,         2x
       Cm Gm   Eb   D  Gm    // evt. F umjesto D
nikoga ni_sam, tako volio.

SOLO:
|--------------------------------|-------------------------------------------|
|-------------8------------------|---------------8---------------------------|
|--------5--7--7----5--7-5-------|--------5--77---7--5/7\5--8-8---5/7\5--7-7-|
|--5-7-8--------------------8-7--|--5-7-8------------------------------------|
|--------------------------------|-------------------------------------------|
|--------------------------------|-------------------------------------------|

|----------------|
|----------------|
|----------------|
|--7/8\7--5-3-5--|
|----------------|
|----------------|

Kad suze govore, istina razvaljuje,
i svaka rijec, me obori s nogu
to sto si varala, to bih ti oprostio,
al sto si mene, to ne mogu.

ref.

***VERZIJA 2***
Transkripcija: DRC
Info         : uzivo verzija


UVOD: 2X
Gm                 Cm       Gm       D#                  D
:-----------------------------------------------------------------
:-3-----3h4p3--------4-----4--3-----3--4--------------------------
:---3---------3---3----5----------3------3------------------------
:-----5---------5--------5------5-----------5-7-8-8h10p8---7---5--
:--------------------3-----------------6-----------------8--------
:-3---------------------------3-----------------------------------

SOLO:
:---------------------8-10------------8-10---10--11-8--10-----------8-10-
:-------------8-10-11---------8-10-11-----------------------8-10-11------
:-------5-7--------------------------------------------------------------
:-5-7-8------------------------------------------------------------------
:------------------------------------------------------------------------
:------------------------------------------------------------------------

:-10-10-10-11-10-8-8-8-10-8--------------------------
:---------------------------11-11-11-13-11-10-8-7-8--
:----------------------------------------------------
:----------------------------------------------------
:----------------------------------------------------
:----------------------------------------------------

* Ovo je uvod i solo s live verzije ove pjesme jer original nemam
* Za solo treba pazljivo slusati radi trajanja tonova koje se ne moze
* bas najbolje prikazati u tabu