Crvena Jabuka - Tvog Srca Vrata

Transkripcija: Mario Dautovic


/ solo / 

          Hm            G 
Redaju se slike, setaju Miskinovom 
D            F# 
djevojke k'o vile 
             Hm 
davno proslo vrijeme 
        G    F#Hm F# 
sve ste moje bile 

vracaju se dani mirisu tresnje 
kada sidjem niz Kovace 
pitat cu te jednom 
sta ti ove pjesme znace 

Hm      G           A         D 
za koga nocas cuvas dukat oko vrata 
Hm          G        A          D         Hm 
i da l' jos ime moje tvoga srca vrata otvara 
Hm      G           A         D 
za koga nocas cuvas dukat oko vrata 
Hm                   A     F#        Hm 
i da l' jos ime moje tvoja vrata otvara 

zbogom bivse noci dernek u parku 
ti kraj mene i gitara 
ne znam da l' cu moci biti onaj isti
a ti ona stara 

i redaju se slike, setaju niz kinovo 
djevojke k'o vile 
davno proslo vrijeme 
sve ste moje bile 

za koga nocas....
 
/ solo klavijatura / 
/ solo gitara / 

za koga nocas... 

/ solo gitara /

***VERZIJA 2***
Transkripcija: Mladjo


Mislim da je ovo u redu. Ovo mi je prvi put da pisem tab pa izvinite ako 
nije 100%.

Uvod
|------------------------------------------------------------------------|
|------------------------------------------------------------------------|
|-------------------  4 2 5-----------------------------------424-----223|
|-444 2----------------------2h4 4 2 4----4444-2----------------- 2h4----|
|------ 5 4/5\4 2  2---------------------------- 54/5\4 2- 2-------------|
|------------------------------------------------------------------------|

Riff 1 refrejn
|------------------------------------------------------------------------|
|------------------------------------------------------------------------|
|-9h11--9----9h11------------9h11-11-9-----------------------------------|
|---------12---------------------------12-11-9---------------------------|
|------------------------------------------------------------------------|
|------------------------------------------------------------------------|

riff 2 refrejn
|------------------------------------------------------------------------|
|-14-15-17-15-14---------------------------------------------------------|
|-14-------------16-14---9bu 11 bd9-p7--9/11--------9h-11-11-9-----------|
|-14-----------------------------------------------------------12-11b12-9|
|------------------------------------------------------------------------|
|------------------------------------------------------------------------|

|------------------------------------------------------------------------|
|---------------------------------------------7--------------------------|
|----------------------------------9b11bd9p7h9-9-------------------------|
|------------------------------------------------------------------------|
|-12\10-9-7-9--9p7h9p7h9p7h9----------------------4-2--------------------|
|------------------------------------------------------------------------|

Solo
|------------------------------------------------------------------------|
|----------------------3p2-----------------------------------------------|
|-------------------  -----4-2-4---------------11-11-11-9----------------|
|-444 2---------------------------2h4 4 2 4---------------12-11b12bd11-9-|
|------ 5 4/5\4 2  2--------------------------------------- -------------|
|------------------------------------------------------------------------|

|-----------------------10h12-10-12-9-10---------------------------------|
|------------------10h12-----------------10h12-12-12-12-12-10------------|
|------------------------------------------------------------12----------|
|-11p9-11-11/12-12-------------------------------------------------------|
|------------------------------------------------------------------------|
|------------------------------------------------------------------------|

|------------------------------------------------------------------------|
|------------------------------------------------------------------------|
|-11-12-14p12p11---11----------------------------------------------------|
|---------------14----14-12-11h12p11----11-------------------------------|
|------------------------------------12----14----------------------------|
|------------------------------------------------------------------------|

outro
vrata otvara
|------------------------------------------------------------------------|
|------10----10h12----15p14h15-------------------------7-----------------|
|--7h9-------------------------12/14---14-9--9b11bdr7h9--9-7-6br---------|
|---------------------------------------------------------------9--9p7h9-|
|------------------------------------------------------------------------|
|------------------------------------------------------------------------|

#cekas me ti#        kao pocetak 1 solo pa onda ovo
                               mozda sam promasio ton dva ovde
|-------5----------------------------------------------------------------|
|---5h7---7-5-------------------------------10-----10--------------------|
|-------------7-6br------------6-7-9--9p7h9----9b11--bd9p7h9-------------|
|-------------------9----9p7h9-------------------------------7-\---------|
|------------------------------------------------------------------------|
|------------------------------------------------------------------------|

|---------------------------------12-----------------12b14bd12p10-12p10--|
|----------------------10----12b14---12-10--10h12-12-------------------12|
|-----7---------9-----9--------------------------------------------------|
|----7--9---7h9------9---------------------------------------------------|
|-/9---------------------------------------------------------------------|
|------------------------------------------------------------------------|

|-10----------------10-9-10p9p7-9-7----7---------------------------------|
|----12-10--------------------------10---10-7--7-------------------------|
|---------------------------------------------9--9p7h9p7-----------------|
|--------------------------------------------------------9p7h9p7-7-9-----|
|---------------------------------------------------------------9--------|
|------------------------------------------------------------------------|

kad radite hammer on, velikim slucajema, prvi ton se vrlo malo cuje.
tkj bend gore pa dole pa release, je veoma brzo.Slusaj pjesmu
komentare dobro dosle