Crvena Jabuka - Tvojim Zeljama Vodjen

Transkripcija: vanja.mrsa@freesurf.ch
Album        : Tvojim zeljama vodjen (2002)


Intro:Dm Gm A7

Dm                                   Gm
Daj mi daj,daj mi sat,daj mi minut tisine
        A7                          Dm
da iz daljine prvi put pogledam u sebe
Dm                                        Gm
pa da znam da l sam sam il' s tobom sam roden
               A7                      A#
tvojim zeljama voden,jesi li zena za mene,
        A7
zena za mene


    Dm                    C
Ove ruke sto me miluju su hladne
    Gm
oci gladne
        F            A7
vise ne poznajem taj lik
      Dm                      C
i taj sjaj u oku sto ga nosis draga,
        Gm
to nije ljubav
         F       A7
vec samo jeftini trik.


Uvijek laz,samo laz nije tesko prepoznat'
neko tako ti poznat masku mijenja za tren
nisam dobar ni los sasvim sasvim mi je svejedno
a molim te jedno,ostavi prozor otvoren
da izade tuga,da ne ostanem njen

Ove ruke sto...


***VERZIJA 2***
Transkripcija: Ida@post.hinet.hr


uvod: 1
             Dm7             Dm      Gm7               Gm
E||-10-10-10-10-8-8-------------8-8-8-8-------------------
H||-----------------11-10-11p10---------11-11-10--8--10p8-
G||-------------------------------------------------------
D||-------------------------------------------------------
A||-------------------------------------------------------
E||-------------------------------------------------------

            A7#5        A7           Dm
E||-------------------------------|------|
H||-11-11-11-11--10-10--8-8-------|-8-10-|
G||-------------------------10-10-|------|
D||-------------------------------|------|
A||-------------------------------|------|
E||-------------------------------|------|

uvod: 2
             Dm7               Dm          Gm7             Gm 
E||-10-10-10-10---8---8--6--5^6p5---8---8---8--6--6--5--3^5p3--
H||-10-10-10-10--10--10--8--6---6--10--10--10--8--8--6--5---5--
G||------------------------------------------------------------
D||------------------------------------------------------------
A||------------------------------------------------------------
E||------------------------------------------------------------

             A7#5        A7           Dm  Dsus2  Dm
E||--6--6--6--6--5--5--3--3--1--1------1--
H||--8--8--8--8--6--6--5--5--3--3---5--3--
G||------------------------------------2--
D||---------------------------------------
A||---------------------------------------
E||---------------------------------------

Dm7                Dm                Gm      Gm7
Daj mi daj, daj mi sat, daj mi minut tisine,
      Asus4  A7                   Dm   Dsus2  Dm
da iz daljine, prvi put pogledam u sebe.
Dm7                Dm                   Gm      Gm7
Pa da znam dal' sam sam il' s tobom sam rodjen,
               A       A7             B             A    A7
tvojim zeljama vodjen, jesi li zena za mene, zena za mene.

    Dm          Dm7      G7sus4/C     Gm      Gm7
Ove ruke sto me miluju su hladne, oci gladne,
        F            A   A7
vise ne poznajem taj lik.
      Dm         Dm7         G7sus4/C        Gm     Gm7     
I taj sjaj u oku sto ga nosis draga, to nije ljubav,
         F       A     A7
vec samo jeftini trik.

Uvod : 2

       Dm7                Dm    Gm        Gm7
Uvijek laz, samo laz nije tesko prepznat'
       A sus4  A7                   Dm   Dsus2  Dm
neko tako mi poznat, masku mijenja za tren.
      Dm7           Dm           Gm        Gm7
Nisam dobar ni' los sasvim mi je svejedno,
            A                   B
a molim te jedno, ostavi prozor otvoren,
         A A7 B               A    A7
da izadje tuga, da ne, ostanem njen.

    Dm          Dm7      G7sus4/C C     Gm      Gm7
Ove ruke sto me miluju su hladne, oci gladne,
        F            A   A7
vise ne poznajem taj lik.
      Dm         Dm7         G7sus4/C        Gm     Gm7     
I taj sjaj u oku sto ga nosis draga, to nije ljubav,
         F       A     A7
vec samo jeftini trik.


Uvod : 1

uvod : 2 
       Na na na naj naj na na na na naj na na

    Dm          Dm7     G7sus4/C C    Gm      Gm7
Ove ruke sto me miluju su hladne, oci gladne,
        F            A   A7
vise ne poznajem taj lik.
      Dm         Dm7         G7sus4/C        Gm     Gm7     
I taj sjaj u oku sto ga nosis draga, to nije ljubav,
         F       A     A7
vec samo jeftini trik.


    Dm          Dm7     G7sus4/C C    Gm      Gm7
Ove ruke sto me miluju su hladne, oci gladne,
        F            A   A7
vise ne poznajem taj lik.      
      Dm         Dm7        G7sus4/C C       Gm     Gm7     
I taj sjaj u oku sto ga nosis draga, to nije ljubav,
         F       A     A7
vec samo jeftini trik.       Fade out

            E A D G H E  
            -----------
Dm7      :  X 5 7 5 6 5  
Gm7      :  3 5 3 3 3 3
Asus4    :  X 0 2 2 3 0
Dsus2    :  X X 0 2 3 0
G7sus4/C :  X 3 0 0 1 1 
A7#5     :  X 0 3 2 2 3