Crvena Jabuka - Volio Bih Da Si Tu

Transkripcija: Ljubisa Prica [lj_prica@hotmail.com]
Home         : http://2akordi.net
   

Intro:
          Am        D         G     Em        Am          D         G     Em
E|--------------------------------------------------------------------------|
H|--------------------------------------------------------------------------|
G|------------------9--9-7------------------------------9-7-----------------|
D|--------9^10-9-10--------10-9--10-9---------9^10-9-10-----10--9-7-9--10-9-|
A|-7-9-10------------------------------7-9-10-------------------------------|
E|--------------------------------------------------------------------------|

   D                Em             H7              Em
E------------------------------------------------------|
H------------------------------------------------------|
G--9-7-------------------------------------------------|
D------10-9-7--9-10-9-----------------------7----------|
A----------------------10-9-7--9-10-9--9^10---10-9-7---|
E------------------------------------------------------|

Em
Volio bih da si tu,
    D                Em
Ove noci tako trebas mi
Am         Em
Kao more mornaru
      H7               Em
Nemam s kim nadu dijeliti 
      H7         Em
Dijeliti i sacuvati

Volio bih da si tu,
Nocni program je na radiu
Pustaju neku dragu muziku
Moje misli tebi putuju,
Putuju, da te pronadju

REFREN:
	Am    D        G     Em
	Nocas zvijezde padat ce
	Am    D       G    Em 
	Jedna od njih nasa je
	D          Em 
	Jedna nosi utjehu
	     H7                   Em 
	Ko u snu, volio bih da si tu

Volio bih da si tu 
Ove noci da pricas mi
Slavili bi do zore
Svu bi njeznost svijeta popili
popili, pa se ljubili

REFREN

Dok zadnji put pjeva refren ubace jos ovaj solo u pozadini:

E|------------------12--12-10-------------------------------12-10-------------|
H|---------13-12-13-----------13-12--13-12---------13-12-13-------13--12-10-12|
G|-9-11-12---------------------------------9-11-12----------------------------|
D|----------------------------------------------------------------------------|
A|----------------------------------------------------------------------------|
E|----------------------------------------------------------------------------|

E|-------12-10------------------------------------------------|
H|-13-12-------13-12-10--12-13-12-----------------------------|
G|-------------------------------12-11-9--11^12^11--8-8^9-11--|
D|------------------------------------------------------------|
A|------------------------------------------------------------|
E|------------------------------------------------------------|

   
   
***VERZIJA 2***
Transkripcija:Mr.Z  mr.z@mindless.com
Home         :http://2akordi.net/

 
 Em     		 D              Em
  Volio bih da si tu, ove noci tako trebas mi
 Am         Em        D            Em
  Kao more mornaru, nemam s kim nadu djeliti
       D        E    
  Djeliti i sacuvati
 
 Volio bih da si tu, nocni program je na radiju
 Pustaju neku dragu muziku, moje misli tebi putuju
 Putuju da te pronadju
 
 REF:
 Am   D      G Em Am   D     G  Em        
  Nocas zvijezde padat ce,   jedna od njih nasa je
 D         Em        D                  Em
  Jedna nosi utjehu ko u snu, volio bih da si tu
 
 Volio bih da si tu ove noci da pricas mi
 Slavili bi do zore, svu bi njeznost svijeta popili
 Popili pa se ljubili

***********
Transkripcija: Damir (damir.Kahrimanovic@jk.uni-linz.ac.at)
Home         : http://2akordi.net
 
Motivi: 'Volio bih da si tu' od Crvene jabuke


e ---------------------------------------------------------
H ---------------------------------------------------------
G ---------------------------------------------------------
D -------------2-2-0---------------------2-----------------
A -------3-2-3-------3-2-3-2-------3-2-3---3-2-0-2-3-2-----
E -0-2-3---------------------0-2-3-------------------------

e ---------------------------------------------------------
H ---------------------------------------------------------
G ---------------------------------------------------------
D -2-0-----------------------------------------------------
A -----3-2-0-2-3-2-----------------0-----------------------
E -----------------3-2-0-2-3-2-2-3---3-2-0-----------------
 
 
 ***VERZIJA 3***
 
 
Em     		 D              Em
  Volio bih da si tu, ove noci tako trebas mi
 Am         Em        B            Em
  Kao more mornaru, nemam s kim nadu djeliti
       B        E    
  Djeliti i sacuvati
 
 Volio bih da si tu, nocni program je na radiju
 Pustaju neku dragu muziku, moje misli tebi putuju
 Putuju da te pronadju
 
 REF:
 Am   D      G Em Am   D     G  Em        
  Nocas zvijezde padat ce,   jedna od njih nasa je
 D         Em        B                  Em
  Jedna nosi utjehu ko u snu, volio bih da si tu
 
 Volio bih da si tu ove noci da pricas mi
 Slavili bi do zore, svu bi njeznost svijeta popili
 Popili pa se ljubili