Cukic Dejan - Letnje Kise

Transkripcija: Milan Pavlovic (paparaco@EUnet.yu)
Home         : http://www.yutabs.f2s.com


  Tema i strofa :
  E                                E
E|--------------------------------|--------------------------------|
H|10------10--10--9---------------|7-------7---7---9---------------|
G|9-------9---9---9---------------|9-------9---9---9---------------|
D|9-------9---9---9---------------|9-------9---9---9---------------|
A|--------------------------------|--------------------------------|
E|--------------------------------|--------------------------------|
  E                                E
E|--------------------------------|--------------------------------|
H|----10----------9-------9-------|7-------7---7---9---------------|
G|----9-----------9-------9-------|9-------9---9---9---------------|
D|----9-----------9-------9-------|9-------9---9---9---------------|
A|--------------------------------|--------------------------------|
E|--------------------------------|--------------------------------|
  Cism                             Cism(u strofi A)
E|--------------------------------|--------------------------------|
H|10------10--10--9---------------|7-------7---7-------------------|
G|9-------9---9---9---------------|9-------9---9---9---------------|
D|11------11--11--11--------------|11------11--11--11--------------|
A|--------------------------------|--------------------------------|
E|--------------------------------|--------------------------------|
  Cism(u strofi E)                 Cism(u strofi E)
E|--------------------------------|--------------------------------|
H|----10----------9-------9-------|7-------7---7---9---------------|
G|----9-----------9-------9-------|9-------9---9---9---------------|
D|----11----------11------11------|11------11--11--11--------------|
A|--------------------------------|--------------------------------|
E|--------------------------------|--------------------------------|

  Strofa:
E
Uzela je kofere
E
Tog je jutra puklo sve
     Cis       A
Nije bilo suza
          E
Nije bilo tuzno

Kad je stvari skupila
Pogledom je rekla sve
Ostalo je samo
Osecanje ruzno

  Prelaz:
H
Znao sam da nikada
H
Njeno malo stopalo
H
Nece stati na moj prag
H
Sve je propalo niceg nema vise

  Refren:
A          H  E
Kao letnje kise
A          H    Cism H A
U trenutku srusilo se sve
A          H  E
Kao letnje kise
A        H   Cism H E
Iznenada i bez najave

Kad je stvari skupila
Pogledom je rekla sve
Nasa prica davno
Trebalo je da se skrati

Nisam ni pomisljao
Tad da je zaustavim
Znao sam kad krene
Nikad nece da se vrati

  Solo(pratnja): (isto kao strofa)

  Korisceni akordi:
E   -X79997
Cism-9 11 11 9 9 9
A   -577655
H   -799877