Cukic Dejan - Ruza Ispod Pepela

Transkripcija: Ivan Djacic (djacic@yahoo.com)
Home         : http://2akordi.net


uvod:D D/C# D/H D/A G A D

D   D/C#  D/H   D/A      G  A     D
Kad oluja prodje    kada umiri se tlo
D     D/C#   D/H  D/A       G  A    D
I kad ljubav dodje    da bi oterala zlo
Hm        F#m         G     A   D
Kraj puta ostace ruza ispod pepela
D    D/C# D/H D/A     G    A    D
Koja u  tisini   samo nebo pokriva

ref:
G             D/F#
Kako je divan dan
     Em       A   G    D
Suza je vatre sve ugasila
G             D/F#
Nestaje ruzan san
    Em         A   G   D
Kao rekom voda crvena
Prokleto divan dan
Kako brzo se sve zaboravlja
Bar da je ruzan san
Ne bi ova sveca gorela

Oblaci kad zadju stanu kise olovne
Ptice kada nadju u tvom kraju prolece
Kraj puta ostace ruza ispod pepela
Koja u tisini samo nebo pokriva

< ref >
< solo = ref >

                 ^  ^
/--------------( *  * )---------------\
|=====================================|
|        < DjAkOn   StRaSnI >         |
|          djacic@yahoo.com           |
\-------------------------------------/

***VERZIJA 2***
Transkripcija: Milan Pavlovic (paparaco@EUnet.yu)
Home         : http://www.yutabs.f2s.com


  Tema:
  D                D/Cis       D/H  D/H         D/A  D/A
E|----2-----------|----2-----------|----2-----------|----2-----------|
H|--------3-------|--------3-------|--------3-------|--------3-------|
G|------------2---|----------------|----------------|------------2---|
D|0---------------|----------------|----------------|----------------|
A|----------------|4-----------2---|(2)---------0---|(0)-------------|
E|----------------|----------------|----------------|----------------|
  G                A           D    D                D
E|----------------|----------------|----------------|----------------|
H|--------3-------|----2-------3---|(3)-------------|(3)-------------|
G|--------0-------|----2-------2---|(2)-------------|(2)-------------|
D|--------0-------|----2-------0---|(0)-------------|(0)-------------|
A|----------------|0---------------|----------------|----------------|
E|3---------------|----------------|----------------|----------------|

  Strofa:
{tema}
Kad oluja prodje, kada umiri se tlo
{tema}
I kad ljubav dodje da bi oterala zlo
Hm        Fism        G     A   D
Kraj puta ostace ruza ispod pepela
{tema}
Koju u tisini samo nebo pokriva

  Refren:
G             D
Kako je divan dan
     Em       A    G   D
Suza je vatre sve ugasila
G             D
Nestaje ruzan san
    Em         A    G D
Kao rekom voda crvena

Kako je divan dan
Kako brzo se sve zaboravlja
Bar da je ruzan san
Ne bi ova sveca gorela

Oblaci kad zadju i stanu kise olovne
Ptice kada nadju u tvom kraju prolece
Kraj puta ostace ruza ispod pepela
Koju u tisini samo nebo pokriva

Prokleto divan dan
Kako brzo se sve zaboravlja
Bar da je ruzan san
Ne bi ova sveca gorela

  Korisceni akordi:
D    -XX0232
D/Cis-X4X232
D/H  -X2X232
D/A  -X0X232
G    -320033
A    -X02220
Hm   -X24432
Fism -244222
Em   -022000