Dado Topic – Hegedupa Upa – Akordi za gitaru

SLOVO D



Transkripcija: nik


1.melodija
E---------------------------------------------|
B---------------------------------------------|
G---------------------------------------------|
D---5-------------------7-5-------------------|
A-7---7p5-------5---7---7-5-7-7-7-------------|
E-0-------7-5-7-----0-------0-0-0-------------|

E---------------------------------------------|
B---------------------------------------------|
G---------------------------------------------|
D---5-------------------7-5-------------------|
A-7---7p5-------5-7p5---7-5-7-7-7-------------|
E-0-------7-5-7-------7-----0-0-0-------------|

E---------------------------------------------------------|
B---------------------------------------------------------|
G-----------------------------------------------------9-7-|
D-----------------------------------------------------7-5-|
A-7-7-7-5h7-7-7-5h7-7-7-5h7-7-7--7-7-5h7-7-7-5h7-7-7------|
E-0-0-0--------------------------0-0----------------------|

E---------------------------------------------------------|
B---------------------------------------------------------|
G-----------------------------------------------------9-7-|
D-----------------------------------------------------7-5-|
A---7-7-5h7-7-7-5h7-7-7-5h7-7-7--7-7-5h7-7-7-5h7-7-7------|
E---0-0--------------------------0-0----------------------|

2.melodija
E---------------------------------------------|
B---------------------------------------------|
G---------------------------------------------|
D---------------------------------------------|
A-----7-7-----7----5-7-7-7-5------------------|
E-7-7-----5-3-0--7-----------7-7--------------|

E----------------------------------|
B----------------------------------|
G----------------------------------|
D----------------------------------|
A---5-7-7-----7--5s7-5-----------7-|
E-7-------5-3-0--------7-5-3-3-2-0-|

E----------------------------------------------------|
B----------------------------------------------------|
G------------------------------------------------9-7-|
D------------------------------------------------7-5-|
A--5h7-7-7-5h7-7-7-5h7-7-7--7-7-5h7-7-7-5h7-7-7------|
E--0------------------------0-0----------------------|

3.melodija
E---------------------------------------------|
B---------------------------------------------|
G---------------------------------------------|
D-7-5-------5---------------------------------|
A-----7-5h7---3--5-3--------------------------|
E--------------------5-0-3-5-5----------------|

E---------------------------------------------|
B---------------------------------------------|
G-------------------------5-------7-5---------|
D-------------5-------5-----7-5h7-----7-------|
A-------3-5h7---3-5h7---7---------------------|
E-0-3-5---------------------------------------|

E--------------------------------------------------|
B--------------------------------------------------|
G-----5---5h7-7-5-------7-5---7-5------------------|
D-5-7---7---------7-6-5-----7-----7-5-6-7-5--------|
A-------------------------------------------7-6-5--|
E--------------------------------------------------|

E--------------------------------------------------|
B--------------------------------------------------|
G---------5-----7-5---------7-5--------------------|
D-----5-----5h7-----7-----7-----7-5----------------|
A-5h7---7-------------5h7-----------7-5p3----------|
E-----------------------------------------5-5------|


Ovako(otprilike :D)zvuci,naravno uz sitne varijacije tokom pjesme.

Pozdrav!

Nikola


Ostali Akordi Od Autora
Aerodrom | Akt | Alisa | Alogia | Amajlija | Ambasadori | Angels Breath | Animatori | Arhangel | Arsen Dedić | Atentat | Atheist Rap | Atomsko Sklonište | Babe | Babies | Bajaga & Instruktori | Balašević Đorđe | Balkan | Bare Goran | Bebi Dol | Bebić Toma | Belan Neno | Belfast Food | Bezobrazno Zeleno | Bijele Strijele | Bijelo Dugme | Bjesovi | Block Out | Boa | Bolero | Bombaj Štampa | Books Of Knjige, The | Borislav Mitić | Bresković Brothers | Buldožer | Bulevar | Bušmani | Cod | Crna Udovica | Crno Perje | Crno Vino | Crvena Jabuka | Crveni Koralji | Cukić Dejan | Čutura | Dado Topić | Daleka Obala | Damir Urban | Darko Rundek | Đavoli | Davorin Popović | Debeli Precjednik | Deca Loših Muzičara | Dedić Arsen | Dejan Cukić | Del Arno Bend | Delča | Denis I Denis | Direktori | Divljan Vlada | Divlje Jagode | Divlji Anđeli | Dobrovoljno Pevačko Društvo | Đorđe Balašević | Đordje David & Fuzzbox | Drago Mlinarec | Drugi Način | Drugo Stanje | Đubrivo | Đura i Mornari | Dža ili Bu | Džukele | Ekatarina Velika - EKV | Električni Orgazam | Elvis J Kurtović | Emir I Frozen Camels | Erogene Zone | Eva Braun | Ex-Revolveri | Eyesburn | Familija | Film | Fit | Flare | Galija | Generacija 5 | Generacija Bez Budućnosti | Gibonni | Gino Banana | Goblini | Goran Bare i Plaćenici | Grupa 220 | Gustafi | Gužva u 16-tercu | Hakuna Matata | Hali Gali Halid | Haustor | Hladno Pivo | Idoli | Indexi | Inspektor Blaža I Kljunovi | Irina I Vi | Itd Bend | Jarboli | Jinx | Josipa Lisac | Jugosloveni | Jura Stublić | Jurica Pađen | Jutro | Kanda Kodža I Nebojša | Kawasaki 3p | Kazna za Uši | Kbo! | Kerber | Knock Out | Kojoti | Kolja I Smak Bijelog Dugmeta | Kongres | Konvoj | Košava | Kraljevski Apartman | Kristali | Ksenija | Kud Idijoti | Kuguars, The | Kurtović Elvis J | Lacni Franc | Laki Pingvini | Laufer | Leb i Sol | Letu Štuke | Lexington Bend | Lisac Josipa | Love Hunters | Macbeth | Majke | Mance | Mandić Oliver | Manojlović Zlatko | Marijan Ban | Massimo Savić | Memorija | Metak | Miladin Šobić | Miroslav Rus | Mitić Borislav | Mizar | Mladen Vojičić - Tifa | Mlinarec Drago | Montano Toni | Nbg | Negative | Neki To Vole Vruće | Nemoguće Vruće | Neno Belan | Nermin Puškar | Neverne Bebe | Night Shift | Nikola Pejaković | Nikola Vranjković | No Smoking Orchestra, The | Nola | Non Stop | Novembar | Obala, The | Obojeni Program | Ofsajd | Oktobar 1864 | Oliver Mandić | Opća Opasnost | Orthodox Celts | Oružjem Protiv Otmičara | Osmi Putnik | Osvajači | Pađen Band | Pankrti | Paraf | Parni Valjak | Partibrejkers | Patrola | Pejaković Nikola | Pekingška Patka | Piloti | Pips, Chips I Videoclips | Plejboj | Pop Mašina | Popcycle | Popović Davorin | Poslednja Igra Leptira | Presing | Prljavi Inspektor Blaža | Prljavo Kazalište | Protest | Psihomodo Pop | Punkt | Puškar Nermin | Rade Šerbedžija | Radnička Kontrola | Rambo Amadeus | Ramirez | Rani Mraz | Regata | Regina (sa) | Revolveri | Riblja Čorba | Riblje Pušenje | Rimtutituki | Ritam Nereda | Rundek Darko | Rus Miroslav | S Vremena Na Vreme | Šarlo Akrobata | Satan Panonski | Savić Massimo | Septica | Šerbedžija Rade | Six Pack | Skroz | Smak | Smf | SongKillers | Stakleno Zvono | Stampedo | Stefanovski Vlatko | Stijene | Straight Jackin' | Stublić Jura | Suncokreti | Sunshine | TBF, The Beat Fleet | Termiti | Tifa - Mladen Vojičić | Time | Tina | Točak R.M | Toma Bebić | Toni Montano | Topić Dado | Tragači | Trula Koalicija | Tutti Frutti Balkan Bend | U Škripcu | Urban Damir | Valentino | Vampiri | Van Gogh | Vatra | Videosex | Viktorija | Vještice | Vlada Divljan | Vlatko Stefanovski | Yammat | Yu Grupa | Yu Rock Misija | Za Jednu Noć | Zablujena Generacija | Zabranjeno Pušenje | Zabranjeno Pušenje (bg) | Zabranjeno Pušenje (zg) | Zadruga | Zaklonisce Prepeva | Zana | Zbogom Brus Li | Živo Blato | Zlatko Manojlović | Zlatni Prsti | Zoster | Zvijezde |