Dado Topic - Dok Ja I Moj Mis Sviramo Jazz

Transkripcija: ivan3 (a38@net.hr)
Autor        : Dado Topic
Album        : Divlje Guske, singl 1976


Uvod:   |H5      |H5   |H5  riff|        |

    H5                           F#5 fill
    U malom baru uvijek prestaje ples
    E5                          H5 riff
    Kada ja i moj mis zasviramo jazz
    H5                                F#5 fill
    Svi plesaci odlaze i sjedaju za stol
    E5                                 H5 riff
    A neki vicu "Svirajte nam rock and roll"

    F# riff
    Svi bi htjeli nesto novo
    A mi znamo samo ovo
    Ne volimo nove stvari 
    Sto se sviraju na gitari

        E riff         
    Jer ja i moj mis sviramo jazz
                                    H5
    i nije nas briga sto prestaje ples
    
                                  F#5 fill
    Jucer su nas istjerali iz bara van
    E5                          H5 riff    
    Al smo danas nasli novi angazman.
                                  F#5 fill
    Drugi put dozivjeli smo pravi shok
    E5                       H5 riff
    U tom baru svira se samo rock

    F#5 riff
    Radili smo cijele noci
    Sve je tu na jednoj ploci
    Skinuli smo nove stvari 
    Sto se sviraju na gitari

        E riff
    Jer ja i moj mis sviramo rock
    Nije nas briga za onaj shok

    H5       A5        E5
    Ali tako nije bilo dugo
    H5          F#5   A5     E5
    Sad se opet svira nesto drugo

    F#5                    E5 *
    Sviraju se opet stare stvari 
    F#5                 E5
    Koje vole samo nasi stari

                 D5
    Gospa Topic mlada
                A5
    Njena mama stara
            E5
    Mamina kci    (x2)


    U malom baru...
    
    Svi bi htjeli ...
    
    U malom baru.. x3


    ----------------------------



H5 riff:
    |-------------------|-------------------|
    |-------------------|-------------------|
    |-------------------|-------------------|
    |----------------6--|-7-----6---9-------|
    |----------6-7-9----|-------------7-----|
    |-7----7-9----------|-------------------|


     F#5                                E5       
F#5 fill
    |------9--------12--|-11-9-------9-|-----
    |-9b11----9/7-------|-------9-11---|-----
    |-------------------|--------------|11r9-
    |-------------------|--------------|-----
    |-------------------|--------------|-----
    |-------------------|--------------|-----


     F#5                           E5
F#5 riff
    |-------------------|-------------------|
    |-------------------|-------------------|
    |-------------------|-------------------|
    |---------4---------|-------------------| x3
    |---------------1-2-|-1-2-1-4-----------|
    |-2-----------------|----------0--------|

     F#5                 E5
    |-------------------|-------------------|
    |-------------------|-------------------|
    |-------------------|-------------------|
    |----------4--------|-2---1-------------| 4.put
    |-------------------|-------4-2-1-------|
    |-2-----------------|-------------4-2---|


     E5
E5 riff:
    |-------------------|-------------------|
    |-------------------|-------------------|
    |-------------------|-------------------|
    |-------------------|-------------------|
    |-2-----2-4---2-----|-2-----2-4---2-----|
    |-0-----0-0---0-----|-0-----0-0---0-----|

    |-------------------|-------------------|
    |-------------------|-------------------|
    |-------------------|-------------------|
    |-------------------|-------------------|
    |-2-----2-4-2---4---|-2---4-----2-2-2-2-|
    |-0-----0-0-0---0---|-0---0-----0-0-0-0-|


    E5* = x799xx