Dado Topic - Makedonija

Transkripcija: Vanja Cerimagic (fur_immer_punk@hotmail.com)
Prepravio    : da se moze svirati i pevati (reci i akorde):
               Ivan Djacic (djacic@yahoo.com)
Home         : http://2akordi.net


Uvod:|c#      |H |A |
     |c#      |H |A |

c#   E    H            c#
tamo gdje vjecno sunce sja,
     E   H      A
tamo je makedonija,
c#      E      H          A    prelaz:c# E H c#, A H, uvod
narod i zemlja koju volim ja.

c#         E    H            c#
dok vardar grli polja zrelog zita,
          E     H          A
ponosna i gorda kao gorska ptica.
           c#           H  A            E
pjesmom je svojm zemlja ta ocarala srca sva
  D              c#     H         A       uvod
i vino sa izvora njenih sad pijem ja.

c#           E        H          c#
besmrtna k'o srce sto vijekovima bije,
          E     H         A
tudjinska nikad ona bila nije,
c#      E     H             c#        prelaz
zastava njena nek se vjecno vije.

           c#          H         A           E
    kad si sam, kad je sve tuzno ti se sjeti nje,
         D      A                E   H
    makedonija ti pruza ljubav i sve.
           c#          H         A           E
    kad si sam, kad je sve tuzno ti se sjeti nje,
         D      A                E   H
    makedonija ti pruza ljubav i sve.
           c#          H         A           H
    kad si sam, kad je sve tuzno ti se sjeti nje,
         c#       H     A
    makedonija ti pruza ljubav.

solo: c# f#, H E, A, c# H c#. c# f#, H E, A, c# A.
      (c# H A E, D A E H)3x, c# H A H, c# H A,
      c# f#, H E, A, c# H c#. c# f#, H E, A, c# A c# , uvod

c#   E    H            c#
tamo gdje vjecno sunce sja,
     E   H      A
tamo je makedonija,
c#      E      H          c#  prelaz
narod i zemlja koju volim ja.

ref

kraj: (c# E H E, c# E H c#)3x, c# E H c#

***VERZIJA 2***
Transkripcija: Igor Medarevic - mmarko@blic.net
Home         : www.2akordi.net


Prelaz
E-7/9-7b------7b--------------------------------
H-------9--7-9--7b-7b-----------7h8p7-----------
G--------------------9-6b---6-9------9-6-9------
D-------------------------9---------------9--\--
A-----------------------------------------------
E-----------------------------------------------

Solo
E--14-/16-14---14-----------9-------------
H-----------17----16-14--12--12-10-9------
G-----------------------------------11-9--
D-----------------------------------------
A-----------------------------------------
E-----------------------------------------

-----------------------9---9b-9b--
----9-12-10-9h10p9-------12-------
-11---------------11--------------
--------------------11------------
----------------------------------
----------------------------------

E--14-/16-14---14-----------9-------------
H-----------17----16-14--12--12-10-9------
G-----------------------------------11-9--
D-----------------------------------------
A-----------------------------------------
E-----------------------------------------

-----------------------9-----------9---------------
----9-12-10-9h10p9---------------------------------
-11---------------11-----9-11b/13b---13\11-9-11-6--
--------------------11-----------------------------
---------------------------------------------------
---------------------------------------------------

E------------------------------10-9------------------
H------7-----9\7--7---7-9-7-9------12-10-12-8\7--7---
G--9-6--6-8-----9--6-9-------------------------9--9--
D----------------------------------------------------
A----------------------------------------------------
E----------------------------------------------------

E-------------------9--------9b---11b-12\11-9----9--------------
H-7/9b------------9---12-9-------------------12-9--12-9-5/12\5--
G------11-9-11-11---------11------------------------------------
D---------------------------------------------------------------
A---------------------------------------------------------------
E---------------------------------------------------------------

E-------7-------------------------------9---------
H-5/7-10--10-7--8-7-8b-8b-----------------12-9----
G------------------9-----9--11--11-9-11-------11--
D-------------------------------------------------
A-------------------------------------------------
E-------------------------------------------------

E-9b---11b--11-12b-12b-12b-14b--14/16-12-9---9/11-9--------------
H--------------------------------------------------12-9b----10b--
G-------------------------------------------------------11-9-----
D----------------------------------------------------------------
A----------------------------------------------------------------
E----------------------------------------------------------------

E-x-14-/16-14---14-----------9-------------
H------------17----16-14--12--12-10-9------
G------------------------------------11-9--
D------------------------------------------
A------------------------------------------
E------------------------------------------

-----------------------9------------
----9-12-10-9h10p9-------12---------
-11---------------11----------------
--------------------11-----11b-11b--
------------------------------------
------------------------------------

E--14-/16-14---14-----------9-------------
H-----------17----16-14--12--12-10-9------
G-----------------------------------11-9--
D-----------------------------------------
A-----------------------------------------
E-----------------------------------------

-----------------------9-----------9---------------
----9-12-10-9h10p9---------------------------------
-11---------------11-----9-11b/13b---13\11-9-11-6--
--------------------11-----------------------------
---------------------------------------------------
---------------------------------------------------

E---------------
H---------------
G--2-4-6---2-1--
D---------------
A---------------
E---------------

Kraj

Figura 1
E------------------------------------------
H-14\12--------12--------------14\12-------
G------13-11-13--11-----------------11-13--
D------------------14-11--11-14------------
A-----------------------14-----------------
E------------------------------------------

Figura 2
E------------------------------------------
H-14\12--------12--------------------------
G------13-11-13--11------------------------
D------------------14-11--11-14-11--11-11--
A-----------------------14-----------------
E------------------------------------------


Kraj se svira redosledom:

Figura 1
Figura 2
Figura 1
Figura 2
Figura 1
Figura 2
Figura 1