Dado Topic - Reci, Ciganko, Sto Mi U Dlanu Pise

Singl        : 1973,  B strana singla "Makedonija"
Transkripcija: ivan3, a38@net.hr


Intro riff (2x):
  E                     D                     A
|---------------------|---------------------|---------------------|
|--9------------------|-7-------------------|---------------------|
|--9------------------|-7-------------------|---------------------|
|--9------------------|-7-------------------|---------------------|
|--7------------------|-5-------------12///-|---------------------|
|--0------------------|---------------------|-5/7-5~~~--5/7-5-3-0-|

Glavni riff:
 E
|----------------------|
|----------------------|
|----------------------|
|----------------------|
|----------7------5----|
|-0--0-5h7----5h7---3b~|


E (glavni riff)
Danas sam dvadeset cetiri
I svi kazu da tek sad
Dolazi najbolje i ono pravo -
G     A       E
Zivot pocinje sad
Zivot pocinje sad

Sve ono cemu se nadam
Ostvarit ce se sad
Cijeli svijet i bogatstvo me ceka -
Jer ja sam tako mlad
Jer ja sam tako mlad


  Refren:
A            C    D
Reci ciganko sada ono
A          G     F
Sto u mome dlanu pise
A             G     D
Kojim stazama treba prijeci
H
Treba poci sad
       A                   /intro riff/
I kako dugo ce trajati taj san


Ljubav sam spoznao davno
Rijetka je iskrena i duga
Nekad je ljepsa kad se kupi
Kad umre, ostane tuga

Volim jer ne znam da volim
Zivim jer hocu da znam
Koja ce biti ona druga
I sta cu moci da joj dam
I sta cu moci da joj dam

  Refren:
Reci ciganko sada ono
Sto u mome dlanu pise
Sve o ljubavi i o sreci
Da l' cu biti sam il netko treci
Ce unistiti sve

- Solo 1 -

  Bridge: (2x)
E                D
Rekla je ciganka ono
A              E
Sto mi u dlanu pise
E                     D
Da radim sto hocu jer zivim
A             H5 A5    H5 A5   D5 A5
Sada i nikada vise

- Solo 2 - (unisono)

- Intro -

Danas sam dvadeset pet 
I svi kazu da tek sad
Dolazi najbolje i ono pravo -
Zivot pocinje sad
Zivot pocinje sad

Sve ono sto sam htio
I ovaj zemaljski raj
I ljubav i rane i zene i novci
Izgubili su sjaj
Izgubili su sjaj

  Ref:
Reci ciganko sada ono
Sto u mome dlanu pise
Koje radosti, koje boli
Nosi novi dan
I mom zivotu da l' skoro bit ce

E /intro riff/
Kraaaj
Kraaaj