Dado Topic - Zivjeti Slobodno

Album        : Time (1975.) II.
Transkripcija: ivan3, a38@net.hr


Riff 1:
E|------|---------------------------------|----------------------|
B|------|---------------------------------|----------------------|
G|------|-9p7-----------------------------|----------------------|
D|--7h9-|-----9p8p7-5-7p5-----------------|-----2~~--------------|
A|------|-----------------7p6p5-----------|--.-------------------|
E|------|-----------------------7p6p5-3b.25--0-------------------|


E5                     D5          C5     riff 1
Sjedim i cekam dan kad opet bit cu slobodan
E5                D5          C5       riff 1
Vec dugo zivim tu k`o u nekom ruznom snu
A5                  G5          F5       riff 1
Ljudi su oko mene - zivi ljudi, zive sjene
H5                    D5        A5       riff 2
Zbog grijeha ili zene sad sjede pored mene tu


Riff 2:
 |-----------------------------|-----------------------------|
 |-----------------------------|-----------------------------|
 |-.-------------.-------------|-.------------.--------------|
 |-2--2----------2--2----------|-2--2---------2--2-----------|
 |-----------------------------|-----------------------------|
 |------3b.5--0-------3b.5--0--|------3b.5-0--------3b.5--0--|


Moj dan nema kraj, bez sunca oci gube sjaj
Prazan je ovaj svijet, u dusi vec sam starac sijed
Negdje u srcu skrivam ono sto o sreci snivam
Al ipak dan ce doci i sunce vidje`ce oci, znam


Bb      Fmaj7
Zivjeti slobodno
C                   G
To je sve sto zelim sad
Csus4      D
I negdje daleko
   C                 G          D
Od ljudi, od svakoga zla zivje`cu ja


- Organ break: -

|D   |    |C DC|G   |
|A D |A D |G   |A   |
|E   |    |D ED|A   |
|H E |H E |A   |H   |


Sad samo jedno znam: u grijehu covjek nije sam
Mnogi su gijesili a samo su jednom sudili
Ljudska rijec nam nije vrijedna - sama glupost, fraza bijedna
Iskrenost izrazit smije, u ljudima sto sve krije dan

U pravdu vjerujem i samo njoj se zaklinjem
Ona zna tko nije kriv i zna`ce to dok budem ziv
Istinu neki znaju, zasto cute, zar ne znaju
Da je tesko patiti a znati da nisi kriv

H5                      D5      A5      riff 1
Hej! Da je tesko patiti a znati da nisi kriv
Hej! Da je tesko patiti a znati da nisi kriv
Hej! Da je tesko patiti a znati da nisi kriv

-----------------------------------

Strasna stvar, ali skidanje intra je bilo jos strasnije!
Intro imate u GPu, datum slanja 8.9.05.