Dado Topic - Zivot U Cizmama S Visokom Petom

Album        : Zivot u cizmama s visokom petom
Transkripcija: ivan3, a38@net.hr  9.9.05.


Intro:
e|-----------------------------|------------------------------|
H|-----------------------------|------------------------------|
G|o----------------------------|------------------------------|
D|o----------------------------|------------------------------|
A|-5-7-------------------------|-7----5---------------5-7-----|
E|-----------------------------|-----------7------------------|
                                                              ______________
                                                              |
e|-----------------------------|------------------------------|-0----3/4\3/4-|
H|-----------------------------|------------------------------|-0----2/3\2/3-|
G|-----------------------------|-9-7-------------------------o|-1----3/4\3/4-|
D|-----------------------------|-----9-8-7-9-----------------o|-2------------|
A|-7-5-------------------------|-------------5-6-7-5----------|--------------|
E|-----7-5-6-7-----------------|---------------------3b.25----|--------------|

/ ovih 8 taktova se uz manje varijacije korsiti u verse:/
e|-----------------3---4-\-----|------------------------------|
H|-----------------2---3-\-----|------------------------------|
G|-----------------3---4-\-----|-----------------------7~~~~--|
D|-----------------------------|-------------------7/9--------|
A|------7----5-----------------|------7-5------7--------------|
E|-0---------------------------|-0----------------------------|

e|--------------------3/4\3/4--|------------------------------|
H|--------------------2/3\2/3--|------------------------------|
G|--------------------3/4\3/4--|------------------------------|
D|-----------------------------|----------------5b7(slowly)---|
A|------7----5-----------------|-0----------------------------|
E|-0--------------7------------|------3----0------------------|

e|-----------------3---4-\-----|------------------------------|
H|-----------------2---3-\-----|------------------------------|
G|-----------------3---4-\-----|------------------------------|
D|-----------------------------|----------------7b9r7p5-------|
A|------7----5-----------------|------7-5----7-----------5-7~-|
E|-0---------------------------|-0----------------------------|

e|--------------------3/4\3/4--|-------------------------|
H|--------------------2/3\2/3--|-------------------------|
G|--------------------3/4\3/4--|---------------------7-8-|
D|-----------------------------|-----------------7/9-----|
A|------7----5-----------------|------7-----7h10---------|
E|-0--------------7------------|-0-----------------------|
  E7
e|-----------------------------|------------------------------|
H|-----------------------------|------------------------------|
G|-9--8---7--6-----------------|------------------------------|
D|--------------10--9---8---7--|-6---5---4--------------------|
A|-----------------------------|-------------8---7---6---5----|
E|-----------------------------|------------------------------|

e|-----------------------------|------------------------------|
H|-----------------------------|------------------------------|
G|-9-7-------------------------|-9---9---7--------------------|
D|-----9-7-8-9-----------------|-9---9---7--------------------|
A|-------------5-6-7-5---------|-7---7---5--------------------|
E|---------------------3b.25---|------------------------------|


/Verse riff/
Po` zivota drugujem sa muzikom
Dala mi je slavu, novce, vodila me svijetom
Voljeli smo oboje sve sto nam je pruzao
Taj zivot u cizmama sa visokom petom

e|-----------------------------|
H|-----------------------------|
G|-----------------------------|
D|-----------------------------|
A|------7--5h7-5---------------|
E|-0-------------7p6p5-3h5p3-0-|


F#m                G#m
I dobio sam najvise sto moze dati
  Dmaj7             G#dim
I ljubavnik sam bio hiljadama zena
  Adim                F#m
I volio ih iskrenoscu sve
          C#                      Hm
A voljele me nisu jer za njih sam bio
     D          A                    /odsvirati zadnji takt intra/
Samo zvijezda u cizmama s visokom petom

/Verse/
Nisam znao da muzika je borba
U kojoj se okrutno otkidaju glave
U kojoj svak` za sebe svoju bitku bije
U kojoj cak i loseg ratnika pobjednikom slave

/F#m .../
Jer bilo nas je mnogo dobrih u vrijeme Dinamita*
Kad svirali smo iskreno i bili sretni,
Kad za muziku sve smo zrtovovali
A danas su rijetki sto ostali su isti
  D      A             E
I koji se nisu jeftino prodali


D5                    C5
Danas su najbolji oni sto prodaju najvise ploca
D5         C5
Nije vazna muzika
Hm                A
Danas se svira gitara da zaradis sto vise para
G         D
Nema vise muzicara
Danas se svira gitara da zaradis sto vise para
Sve je manje muzicara

-Klavirski break-

-Gitarski solo-

-1. uvodni riff-

/Verse/
Po` zivota drugujem sa muzikom
Dala mi je slavu, novce, vodila me svijetom.
A danas vise ne znam dal` volim il` mrzim
Taj zivot u cizmama sa visokom petom

/F#m ... /
Jer kad skinem cizme i vratim se na zemlju
Gdje zive obicni i meni nekad slicni ljudi
Tad pozornicu mrzim i tad mi se cini
Da lazno i prolazno prostor nam nudi

/C5 ... /
A iako istinu znam
uvijek zaboravim nju
Kad zasja pozornica svjetlom

Hm              A                        __
Tad uzmem gitaru i zapjevam pjesmu staru   |
G                     D                    |(3x)
O zivotu u cizmama sa visokom petom      __|

Heijej
O zivotu u cizmama sa visokom petom
Kad sam bio mali roditelji su mi gitaru dali
Da svijetom sviram ljudima
I sad idem po svijetu cestama
Sviram ljudima po selima i gradovima svuda gdje me
Slusat` hoce ooo
Sve to hvala mojim roditeljima ooo
I tad uzmem gitaru kad me srce pece
Kad me kidaju boli, kad me zena ne voli
Ooo ...

(fade out)

---------------------------------------------------
G#dim  456464 (puni oblik) ili x5646x
Adim   567575 (puni oblik) ili x6757x
Dmaj7  x57675

Jedna od najjacih i najjiskrenijih pjesama o zivotu r`n`r zvijezde ikad spjevana ...

*Dinamiti su bili osjecki rock bend s kraja 60-ih, kroz koji su prosli Krunoslav-Kico
Slabinac, Zlatko Pejakovic, te Josip Bocek, Ratko Divjak i Dado Topic.
Tako da je ovaj bend je bio neka vrsta prethodnika Korni Grupe i Time-a.