Daleka Obala - 14 Palmi

Transkripcija: izi


    A                      D                     A
e|------5---------------------5------10--------------5-----------------
B|-----5------10-------------7---------10~~~--------5------10----------
G|----6----------9~~~-------7---7s11---------------6----------9~~~-----
D|---7----7s11-------------7----------------------7----7s11------------
A|--7---------------------5----------------------7---------------------
E|-5--------------------------------------------5----------------------
 14 palmi       na otoku   srece        zalo po  kojem      se valja


    E
e|-----7--------------------------
B|----9---------------------------
G|---9--9s12-13 12-11-9~~~--------
D|--9-----------------------------
A|-7------------------------------
E|--------------------------------
     val             I moja

    A                                  D                D
e|------5---------------------------------5-----10----------10~~~------
B|-----5------10------10-----------------7--------10-------10~~~-------
G|----6--------(9)-----(9)--------------7---7s11----11----11~~~--------
D|---7---7s11----(11)----(11)----------7-----------------12~~~---------
A|--7---------------------------------5-----------------12~~~----------
E|-5---------------------------------------------------10~~~-----------
      draga          obasuta           cvijecem              lezi kraj

    A       E        A   E     A
e|------5------7----5---7-----5----
B|-----5------9-----5---9-----5----
G|----6------9------6---9-----6----
D|---7------9-------7---9-----7----
A|--7------7--------7---7-----7----
E|-5----------------5---------5----
    mene  sretan sam ja

A                              D
Cetrnaest palmi se nadvilo nad nama
        A               E
Sa zala sumi zapjenjeni val
       A             D
A moja draga obasuta cvijecem
           A      E          A E A
Strasno me ljubi, sretan sam ja.


    A                      D                     A
e|------5---------------------5------10--------------5-----------------
B|-----5-----10--------------7---------10~~~--------5------10----------
G|----6---------9-----------7---7s11---------------6----------9--------
D|---7---7s11-----11~~~----7----------------------7----7s11-----11~~~--
A|--7---------------------5----------------------7---------------------
E|-5--------------------------------------------5----------------------
 14 palmi    sad vise ne   rastu     zalom se    vise      ne valja

    E
e|-----7--------------------------
B|----9---------------------------
G|---9----13-12-11-9~~~-----------
D|--9-----------------------------
A|-7------------------------------
E|--------------------------------
     val

    A                                  D                D
e|------5-------------------------5-----10-------10~~~-------
B|-----5------10-----------------7--------------10~~~--------
G|----6---------9---------------7---7s11-------11~~~---------
D|---7---7s11-----11~~~--------7--------------12~~~----------
A|--7-------------------------5--------------12~~~-----------
E|-5----------------------------------------10~~~------------
 A moja draga     obasuta cvijecem           Nije kraj

    A       E        A   E     A
e|------5------7----5---7-----5----
B|-----5------9-----5---9-----5----
G|----6------9------6---9-----6----
D|---7------9-------7---9-----7----
A|--7------7--------7---7-----7----
E|-5----------------5---------5----
    mene,  tuzan sam ja.


Al' nema veze sto palme ne rastu
I sto se vise ne valja val
I nema veze sto nema moje drage
Sa drugom sutra sretan bit cu ja
Sa drugom sutra sretan bit cu ja...


***VERZIJA 2***
Transkripcija: 0v3rl0rd


SOLO
E||--5-(5)---------------5-(5)-----------|
B||--------5-5-7-7-5-(5)-------5-5-7--5--|
G||--------------------------------------|
D||--------------------------------------|
A||--------------------------------------|
E||--------------------------------------|

E||--7b---(7)pb-7pb--7--5--------------5--L-|
B||-------------------------5-(5)-5-7-------|
G||-----------------------------------------|
D||-----------------------------------------|
A||-----------------------------------------|
E||-----------------------------------------|

E||--7b---7pb-7pb-7pb-7pb-7pb-7pb-7pb-7pb-7pb-7p-|
B||----------------------------------------------|
G||----------------------------------------------|
D||----------------------------------------------|
A||----------------------------------------------|
E||----------------------------------------------|

E||--7----7-5-------------|--5-(5)---------------5-(5)-----------|
B||-----------7--5--------|--------5-5-7-7-5-(5)-------5-5-7--5--|
G||-----------------------|--------------------------------------|
D||-----------------------|--------------------------------------|
A||-----------------------|--------------------------------------|
E||-----------------------|--------------------------------------|

E||-------------------------|----------------------------|
B||----------7---------5-7--|----------------------------|
G||--6----6-----6----6------|--6----6s-7s-6--4---4-------|
D||-------------------------|----------------------7--6--|
A||-------------------------|----------------------------|
E||-------------------------|----------------------------|

E||------------------------||
B||------------------------||
G||-------6s-4-------------||
D||--7---------6--7--------||
A||------------------------||
E||------------------------||

----------------
L - tied note
(n) - ghost note
b - bend
pb - preBend
s - legato slide