Daleka Obala - Culo Se Buc Bac Boc

Transkripcija: arbachi i newals (newalss@walla.com)


Uvod: F C G C    x 4

Uvodni solo:
|--------------------------------|-------------------------------|
|--------------------------------|-------------------------------|
|-------2s5---5-5-5-4-------2-2--|-------2s5---5-5-5-4-----------|
|-2-3-5-----5---------3-3-5-----5|-2-3-5-----5---------3-3-2-----|
|--------------------------------|---------------------------5-3-|
|--------------------------------|-------------------------------|

|---------------------------------|-------------------------------|
|---------------------------------|-------------------------------|
|--------2s5---5-5-5-4-------2-2--|-------2s5---5-5-5-4-----------|
|-223355-----5---------3-3-5-----5|-2-3-5-----5---------3-3-2-----|
|---------------------------------|---------------------------5-3-|
|---------------------------------|-------------------------------|

         F       C
 Culo se buc bac boc
         G                 C
 Palo je sunce u jadransko more
         F       C
 Culo se buc bac boc
         G             C
 Palo je sunce pala je noc