Daleka Obala - Morska Vila

Transkripcija: Zoran123 (zoran.cavuzic@kr.htnet.hr)


UVOD:
e----------12---12---13-----------------15---12---13-------
H---13---13-------------13-------------------------------15
G-----12-------------------12---14---12--------------------
D----------------------------------------------------------
A----------------------------------------------------------
E----------------------------------------------------------

e----------12---12---13------------
H---13---13-------------13---------
G-----12-------------------12-/-14-
D----------------------------------
A----------------------------------
E----------------------------------

nemojte se smijati ako nesto ne valja jer sam ja pocetnik,i dugo
sam to skidao,ak znate neku bolju verziju posaljite da vidim di
sam pogrjesio!!!

***VERZIJA 2***
Transkripcija: Dario

				
UVOD I SOLO1
E-----------12-13-12-------------15---15---13----12---------------12-13-12------------
B-13-----13----------13-------------12--12----12---15--13------13----------13---------
G-----12----------------12/14\12----------------------------12----------------12/14\12
D-------------------------------------------------------------------------------------
A-------------------------------------------------------------------------------------
E-------------------------------------------------------------------------------------

E------------
B------------
G------------
D------------
A------------
E---0-2-3/5\3

C
Kao da je morska vila
       F
Sve je moje snove ostvarila
   C
Na obalama vrelim
G
Neprospavane noci

    C
Kao da je dio plime
     F
Modro more sumi njeno ime
  C
I sklada tihe pjesme
G
Pjesme o samoci

     Am        G
Kao da je dio sna
      Am           G F
Sto me nosi zvijezdama
         Am
I dok je ljubim
        F           G  F
Ona se pretvara da spava

          Am
Grije nas zlatnim suncem
F         G  F
Moje ljubavi
         Am         F
I dok je ljubim kao more
      G
Njeno tijelo podrhtava

C         F                  G
Povedi me prostranstvima gdje svi
(bez sviranja)
Pjevaju o ljubavi

SOLO1

SOLO2

E-----------12-13-12-------------15-----15-13-12-13-12---12v
B-13-----13----------13--------------------------------13--- ...dalje ne znam
G-----12----------------12/14\12----------------------------
D-----------------------------------------------------------
A-----------------------------------------------------------
E-----------------------------------------------------------


By:Dario
PS-akordi su prepisani,a solo sam skinuo sam.