Daleka Obala - Ona Zbori

Transkripcija: ivan3, a38@net.hr


* Cijelo vrijeme se ponavlja fraza:
* Cm Ab Eb G  - i nista drugo.


Riff 1 - intro
  Cm          Ab          Eb        G
|------------------------|--------------------|
|------------------------|--------------------|
|------------------------|--------------------|
|------------------------|----------9---------|
|--------------8/11~--11-|-10~~-10-----10--8--|
|-8--8-8-8--11-----------|--------------------|

|------------------------|--------------------|------|
|------------------------|--------------------|------|
|------------------------|--------------------|------|
|------------------------|----------9--10--12-|-9----|
|--------------8/11~--11-|-10~~-10------------|------|
|-8--8-8-8--11-----------|--------------------|------|


 Riff 2, 0:23
|------------------------|------------------|
|------------------------|------------------|
|------------------------|------------------|
|------------------------|------------------|
|--------------8/11~--11-|-10--8------------|
|-8--8-8-8--11-----------|--------11--10----|


  Riff 3, 1:55
|-----------------------|-------------------|
|-----------------------|-------------------|
|-----------------------|-------------------|
|-----------------------|-------------------|
|--------------8/11~----|-10-----8----------|
|-8--8-8-8--11----------|-----------11--10--|

|-----------------------|-------------------|
|-----------------------|-------------------|
|-----------------------|-------------------|
|-----------------------|-------------------|
|--------------8/11~----|-10~~--------------|
|-8--8-8-8--11----------|-------------------|


 2:33  Riff 3 (6 x)