Daleka Obala - One Bi Htjele

Transkripcija: ivan3 - a38@net.hr
Album        : "Daleka Obala"


Intro: kao verse (2x)


G                  D/F#
Ulicama lutaju, na oblacima nebom plove
Em                       C
Zamisljene, zaljubljene, gledaju u noc ...
I vjeruju u neke lijepe, davno izgubljene snove
Vjeruju da prava ljubav jednom mora doc.
I htjele bi da znaju kako, htjele bi da znaju kamo
Odnose ih vjetrovi dok lebde iznad nas ...
One bi htjele da im pridjes
Da im kazes nekoliko toplih rijeci        -> 2 takta C
One bi htjele da ih ljubis
Njihovu tugu samo ljubav lijeci, lijeci   -> zadnja 2 takta [NC.] ili C7 umjesto C


Refren:
   G          D/F#       Em              C
Primaknite se malo blize k njima, one su tuzne
Poklonite im nasmijani svijet
Primaknite se malo blize k njima, one su tuzne
          D     F  D
A sanjaju smijeh

G D/F# Em C
Aaaaaaaaaaaaaaaaaa (2x)



1. solo
  G            D                Em              C
 |---7-h5p7h5--3--5-p3h5p3-----|-3---------------------3--5/|
 |--8-----------------------5--|----5--3h5p3----3---5-------|
 |-9---------------------------|-------------4--------------|
 |-----------------------------|----------------------------|
 |-----------------------------|----------------------------|
 |-----------------------------|----------------------------|
  G            D                Em             C
 |-/7---7-7-7-7--7-p5h7p5--3---|-5-p3h5p3--------3---5--/12)|
 |-----------------------------|-------------5--------------|
 |-----------------------------|----------------------------|
 |-----------------------------|----------------------------|
 |-----------------------------|----------------------------|
 |-----------------------------|----------------------------|
  G            D                Em             C
 |12p10h12p10--7--10p7h10p7--5-|-7-p5h7p5-3-5-p3h5p3------5-|
 |-----------------------------|---------------------5--8---|
 |-----------------------------|----------------------------|
 |-----------------------------|----------------------------|
 |-----------------------------|----------------------------|
 |-----------------------------|----------------------------|
  G            D                G
 |-----------------------------|----------------------------|
 |-10b12r10--8-----8-----10b12-|r10-p8----------------------|
 |--------------9-----9--------|----------------------------|
 |-----------------------------|----------------------------|
 |-----------------------------|----------------------------|
 |-----------------------------|----------------------------|

- Ponovi sve od pocetka -

2. solo

 Aaaaaaaaaaaaaa

 (... fade out)