Daleka Obala - Ruzinavi Brod

Transkripcija: Matija


        D 
vise ne pantin ca san tija
        F#
kad san bija lud i mlad
           Hm
s kime san cile noci bija
      G
s kin san karta s kin san pija
        D            A
i ko je sve za menom plaka
       Hm       G
kad bi odrisiva kraj
         D           A           D   G A6 A
mozda me tamo di sad iden ceka raj
        D                       F#
debelin moren sad me vozi stari ruzinavi brod
Hm
po provi mu restu frizi
G
a timun mi uvik bizi
D          A        
tamo di bi tija
Hm        G
i tamo di ne bi smija
D       A         D
more je izabralo  put
         F#                   Hm
na kraju moran ti reci da vec dobro vidin kraj
      A                       D
da su valovi sve veci i da mi ne lici na raj
     F#                  Hm
samo olupine stare ca su zarile za dno
      G 
pa mi ono ca san tija
       A                        Hm   A   Hm...
ca san godinama snija nije to
        D
debelin moren...


***VERZIJA 2***
Transkripcija: 0v3rl0rd

*** ispravljena verzija (tnx 2 surf_frei) ***

SOLO:
e|--5--5--3--2-----|-----3--2--0-----|--2--------6-----|------7----7--7--|
H|-----------------|--------------3--|-----------------|-----------------|
G|-----------------|-----------------|-----------------|-----------------|
D|-----------------|-----------------|-----------------|-----------------|
A|-----------------|-----------------|-----------------|-----------------|
E|-----------------|-----------------|-----------------|-----------------|

e|--5---7----------|-----------5-----|-----------------|-----------------|
H|--------7--5-----|--8--8888-----8--|--7--5--7--------|--7--5--------5--|
G|--------------7--|-----------------|-----------7-----|-----------7-----|
D|-----------------|-----------------|--------------7--|-----------------|
A|-----------------|-----------------|-----------------|-----------------|
E|-----------------|-----------------|-----------------|-----------------|

e|-----------5-----|-----------------|-----------------|-----------------|
H|--7--7--7-----8--|--7--5--7--------|--7--7--5--------|-----------------|
G|-----------------|-----------7-----|-----------7--6--|--7--------------|
D|-----------------|--------------7--|-----------------|-----------------|
A|-----------------|-----------------|-----------------|-----------------|
E|-----------------|-----------------|-----------------|-----------------|