Daleka Obala - Susac Blues

Transkripcija: Marko Polo (torcida000@aol.com)
Home         : http://2akordi.net


Intro                                                                    2X
e--------------------------------------------------------------------II
B-----2-4-2~------------------------------2h4--------------2h4--2-4-2II
G---2---------55p7s7--5p7s7-----2--------2--------2------------------II
D-3-----------------------------------3--------3--------3------------II
A--------------------------------------------------------------------II
E--------------------------------------------------------------------II

Am                                              E
Vjetar raskopava more, ja sam na brodu isplovio sam
                                                 Am
vjetar se dize i rusi na mene ja njegovu namjeru znam
                                                  Dm
on zeli isrovati snagu na mene obrusava svu svoju moc
Am                         E                             Am
al ja sam krenuo tamo gdje zelim i tamo gdje zelim ja cu sigurno doc

Refren:
                 Dm              Am
Ne ne bojim se juga ne bojim se bure ne bojim se neba dubine ni dna
       E                               Am
Podivljali valovi me uzalud jure na krilima vjetra poletjet cu ja
          Dm                  Am
Ne ne mogu mi nista ne mogu mi nista sve prirodne sile i sav njihov bjes
           E                                 Am
Ne mogu mi nista ni zega ni kisa na krilima vjetra ja nastavljam ples

Intro 2x ponovo

Nocu kad nevera stane i nebo kad prekrije zvjezdani roj
More ce vidzati stecene rane i skupljat ce snagu za jos jedna boj
I pozvat ce upomoc vjetrove nove i nebo munjama parati noc
Al ja sam onih sto vjecito plove i tamo gdje zelim ja cu sigurno doc

Refren ponovo onda solo do kraja:


e-------------------------------------------------------------I
B-----2-4-2~----------------------2h4-----2h4-----2-4-2-------I
G---2---------55p7s7--5p7s7-----2-------2-------2-------4-2---I
D-3---------------------------3-------3-------3---------------I
A-------------------------------------------------------------I
E-------------------------------------------------------------I
       H          W              W
e--------------------------------------------------------------I
B---------------------b10-----7--------------b10----7----------I
G-3-5-7b9-12-9-7-9-12-----------9-7--97---------------9-7---7~-I
D---------------------------------------9-----------------9----I
A--------------------------------------------------------------I
E--------------------------------------------------------------I

e---------------------------------------------------------------I
B-12br12br12br12br------9---------------------------------------I
G-------------------------11--9-----9-------12-14-16~-14-12-14~-I
D-------------------------------10------------------------------I
A---------------------------------------------------------------I
E---------------------------------------------------------------I

e----------------------------------------------------------------------------I
B14br14br--------------8910------11--12~~~--12-13-13-13br13br13br13br13br13brI
G-----------13-12-11----------12---------------------------------------------I
D----------------------------------------------------------------------------I
A----------------------------------------------------------------------------I
E----------------------------------------------------------------------------I

e--------------------------------------------------------------I
B-11--9--7--5--7--5--------------------------------------------I
G---------------------9-10--11-10-9--11-10-9--11-10-9--11-10-9-I
D--------------------------------------------------------------I
A--------------------------------------------------------------I
E--------------------------------------------------------------I

e---------------------------------------------------------------I
B---------------------------------------------------------------I
G-11br11br-11-11p9----14br-14br-14--12---------11-13-12-14------I
D--------------------------------------13--13-------------------I
A---------------------------------------------------------------I
E---------------------------------------------------------------I

e--------------------------------------------------------------II   
B--------------------------------------------------------------II
G--9-10---11-10-9--do kraja i sve tise i tise udri zice--------II
D--------------------------------------------------------------II
A--------------------------------------------------------------II
E--------------------------------------------------------------II

To je to
h-udri jako zice
br-bend release
p-pull off
~-vibrato
H-bend pola stupnja
W-bend cili stupanj
posaljite mi ispravke ako ih vidite na torcida000@aol.com