Daleka Obala - Upeklo Je Sunce

Album        : Mrlje (1993.)
Transkripcija: ivan3 a38@net.hr



Strumming (jedan takt):
do prvog refrena:            v * v * v * v *

od prvog do drugog refrena:  v^* v^* v^* v^*

od drugog do treceg refrena: v*v*v*v*v*v*v*v*

^ - gore
v - dolje
* - prigusiti zice



Intro:
C           Am
--------------------------------------------------------------
--------------------------------------------------------------
--------------------------------------------------------------
---------------------10----12b14r12-b-r-b-r--12b14r12p10------
---------------10h12----12-------------------------------12---
--------------------------------------------------------------
C           Am
---------------------------------------------------
---------------------------------------------------
---------------------------------------------------
---------------12r10-------10----------------10----
--------------------(12)10----12-------10h12----12-
---------------------------------------------------


C              Am
Upeklo je sunce dan je ko stvoren za plazu  H-------------------------
                                            G---7b9===r7=b9r7p5-------

C                               Am                       A7
Na plazi se nalaze ljudi sto se kupaju,suncaju,brckaju i mazu  H--6b8===r6--------
                                                               G--7b9===r7--------
Dm                    F         G          C
I cim sam skinuo kapu presjekao me osmijeh tvoj    (fill)

C                         Am
Mislio sam da mi se smijes zbog masne kose                    H------------------
                                                              G---7b9==r7b9r7----
C                    Am                      A7
Ili zbog zelene kape, al danas se takve kape nose             H--6b8===r6--------
                                                              G--7b9===r7--------
Dm                     F          G         C   C/H Am
I nisam shvatio nista, idem do sanka popiti sok


REFREN:(3x refren riff)
Dm                       C   C/H Am              (refren riff)
A da sam ja tog trenutka shvati  -o
Dm       G           C C/H Am
Zasto si se nasmijesila
Dm      G           C C/H Am
Sigurno bi se nazad vrati -o
Dm                G         C
I stvar bi drugim tokom krenula

C                      Am
Kad sam stigao do sanka, ti si vec tamo bila   E---8/12-15-12/10/8-------
                                               H-------------------------
C                     Am            A7
Sjedila si sasvim sama i nisi nista pila

Dm             F      G     C
Ponudio sam ti gutljaj soka mog
  (FILL 1)
C                 Am
Rekla si ne,hvala, necu nista piti             G---7b9=r7b9r7b9==r7------
                                               D-------------------------
C                 Am                 A7
Ovdje sam se dosla od zarkog sunca skriti

E---10b12==r10------------
H-------------------------

Dm                    F       G          C
A ja sam rekao dobro, okrenuo se i ispio sok

REFREN: (3x refren riff )

C
Odjednom je za sankom    D-------3---3--------
                         A----/5---5---5------


postalo strasno vruce    G-------5---5--------
                         D----/7---7---7------

C                          Am         A7
Vidio sam druge da skacu i dobio nadahnuce

Dm              F          G             C
Poletio sam kao ptica kroz zrak, odlican skok     G---7b9r7b9r7b9r7-----
                                                  D---------------------
C                 Am
A ti si se u hladu smijala ko malo dijete

C                          Am                 A7
I to mi je poticaj dalo za jos tri-cetiri piruete  H---10p8---8-10------
                                                   G--------9-----------
Dm                  F        G              C
I nisam znao kud sa sobom od srece, bio sam lud

REFREN  (3x refren riff)



-------------

refren riff:
  C         C/H      Am                Dm           G
||-----------------|-----------------|-5--5--5--5--3--3--3--3--||
||.------1-------1-|-----------------|-6--6--6--6--3--3--3--3-.||
||-----------------|-----------------|-7--7--7--7--4--4--4--4--|| x3
||.----2-------2---|-----------------|-7--7--7--7--5--5--5--5--||
||-3-------2-------|---------8-7---5-|------------------------.||
||-----------------|-5-5-8-5-----8---|-------------------------||

fill :
 Dm    F    G   C                             G
|-----|--------|------------------------------3---|
|-----|--------|------------------------------3---|
|-----|--------|-------------------5-5--5-5---4---|
|-----|--------|-------------------5-5--5-5---5---|
|-----|--------|--------------5/7--3-3--3-3-------|
|-----|--------|----------------------------------|