Daleka Obala - Valovi

Album        : "Daleka Obala"
Transkripcija: ivan3 - a38@net.hr



-----------------------------------------------------------------
Ritam za akusticnu gitaru (E-dur):  - ili malo laksi nacin:

   e   s s s s e
 |-----0-0-0-0-0----------------|   |-0---0-0-0-0-0---------------|
 |-----0-0-0-0-0----------------|   |-0---0-0-0-0-0---------------|
 |(1).-1-1-1-1-1---- . //. -----|   |-1-.-1-1-1-1-1---- . //. ----|
 |-0h2-2-2-2-2-2----  //   -----|   |-0h2-2-2-2-2-2----  //   ----|
 |-0h2-2-2-2-2-2----------------|   |-2---2-2-2-2-2---------------|
 |(0)--0-0-0-0-0----------------|   |-0---0-0-0-0-0---------------|
   ^   ^ v ^ v ^                      ^   ^ v  ^ v ^

A i D akordi se sviraju po istom ritamskom uzorku, samo na punih 5 zica.
----------------------------------------------------------------



Intro (slide):

|-/12~~------------|---.--.-------------|
|-/12~~------------|-8/9--7----.--------|
|------------------|-8/9--7--7/9--7-----|
|------------------|---------7/9--7---2~|
|------------------|--------------------|
|------------------|--------------------|

|E-dur 12 taktova|

E                          A                      E fig
Plovim, jedrim preko mora, gledam more, pusim cigaretu
E                          A                      E fig
Plovim, jedrim preko mora, sunce grije, more igra bump
D                      A                     E fig
Osjecam se izvanredno, ja sam najbogatiji na svijetu
D                      A
Osjecam se izvanredno, jedrim i uzivam.

E                  E
Plovim sve dalje i dalje i dalje
  E               D        A
i dalje i dalje u nepoznat kraj (opet)
E                  E
Plovim sve dalje i dalje
          E                D        A
i dalje i vjetar me nosi u nepoznat kraj.


  Refren:
E                                  ---> nastavlja se stalna ritam figura za E
Valovi - igraju, valovi - igraju
                      D       A
koza mi upija bakreni suncani sok
E
Valovi - igraju, valovi - igraju
        D       A      E
A more, more mi tuce o bok
        D       A      E
A more, more me dize i nosi
          D         A        E
Osjecam - vjetar mi struji u kosi
        D        A       E
Osjecam vjetar i uzivam.


Solo D A E  (2x)

E fig (3x)

Plovim jedrim preko mora, gledam more gdje se prema meni penje
Plovim jedrim preko mora, slusam more, dobro jutro velim
Osjecam se izvanredno ...

 (... ponoviti cijelu pjesmu)