Damir Urban - Black Tattoo

Transkripcija: Emir Neziric Nesko(polydis) [strippy_x@yahoo.com]


Intro/strofa
e|----------0------------------0------------|
B|---------1--1----1----------1--1----1-----|
G|-------2-------2----------2-------2-------|
D|-----2------------------2-----------------|
A|--0------------------0--------------------|
E|-(3--5-5-35-35-5-3)-(3--5-5-35-35-5-3)----|

(U zagradama je glavna bass tema, sa malim varijacijama kroz pjesmu)

Bridge
e|---------------------------------------|
B|---------------------------------------|
G|---------------------------------------|
D|--4-4----4-4--5-5----4-4----4-4--5-5---|
A|--4-4----4-4--5-5----4-4----4-4--5-5---|
E|--2-2----2-2--3-3----2-2----2-2--3-3---|

Zemlja kao pauk plete mrezu oko nas
Hitno trebam zraka, pluca su mi premala
Jer ja sam crna rupa, black tattoo za ovaj grad
Ubijam iz tebe, lose u dobro pretvaram

Bridge:
Ja idem, jer hocu
Do neba, ne mogu

R:
Am                 C        G         Am
Ja sam black tattoo, u kozi zemlje zauvjek
Am                 G                    Am
Ja sam black tattoo, black tattoo i ostajem

I vicem svom snagom, tisina krade sav moj glas
Kazem, ovaj svjet je fucking, OK za njih al bad za nas, bad za nas

R:Ja sam black tattoo....