Damir Urban - Odlucio Sam Da Te Volim

Transkripcija: Goran Kalamiza, Bjelovar; wes7boiler@hotmail.com
Album        : "Zena dijete"


* Malo starija Urbanova stvar za koju bas i nisam nasao
* tablature pa sam je odlucio saaam (sto bolje) skinuti.
* Nadam se da sam uspio ;)


  (uvod i strofe su svirani s kratkim delayem)
E|----------------<7>-------------<12>-----------------------------
H|------------<7>-----------------<12>-----------------------------
G|------<5>-----------------------<12>-----------------------------
D|-----------------------------------------------------------------
A|<5>--------------------------------------------------------------
E|-----------------------------------------------------------------
   |       |       |       |       |       |       |       |


E|<12>--<12>--<12>--<12>----<12>--<12>--<12>--<12>-----------------
H|--<12>--<12>--<12>--<12>----<12>--<12>--<12>--<12>---------------
G|-----------------------------------------------------------------
D|-----------------------------------------------------------------
A|-----------------------------------------------------------------
E|-----------------------------------------------------------------
   |       |       |       |       |       |       |       |


E|----------------<7>-------------<12>-----------------------------
H|------------<7>-----------------<12>-----------------------------
G|------<5>-----------------------<12>-----------------------------
D|-----------------------------------------------------------------
A|<5>--------------------------------------------------------------
E|-----------------------------------------------------------------
   |       |       |       |       |       |       |       |


E|<12>--<12>--<12>--<12>----<12>--<12>--<12>--<12>-----------------
H|--<12>--<12>--<12>--<12>----<12>--<12>--<12>--<12>---------------
G|-----------------------------------------------------------------
D|-----------------------------------------------------------------
A|-----------------------------------------------------------------
E|-----------------------------------------------------------------
   |       |       |       |       |       |       |       |

  Odlucio sam da te
E|----------------<7>-------------<12>-----------------------------
H|------------<7>-----------------<12>-----------------------------
G|------<5>-----------------------<12>-----------------------------
D|-----------------------------------------------------------------
A|<5>--------------------------------------------------------------
E|-----------------------------------------------------------------
   |       |       |       |       |       |       |       |

  volim,
E|---------------------5-----------------------5-------------------
H|-------8-------------------8-------------------------8-----------
G|-------------7-----------------------7---------------------------
D|-5---------------------------------------------------------------
A|-----------------------------------------------------------------
E|-----------------------------------------------------------------
   |       |       |       |       |       |       |       |

  nadam se da ovo nije
E|----------------<7>-------------<12>-----------------------------
H|------------<7>-----------------<12>-----------------------------
G|------<5>-----------------------<12>-----------------------------
D|-----------------------------------------------------------------
A|<5>--------------------------------------------------------------
E|-----------------------------------------------------------------
   |       |       |       |       |       |       |       |

  pjesma.
E|<12>--<12>--<12>--<12>----<12>--<12>--<12>--<12>-----------------
H|--<12>--<12>--<12>--<12>----<12>--<12>--<12>--<12>---------------
G|-----------------------------------------------------------------
D|-----------------------------------------------------------------
A|-----------------------------------------------------------------
E|-----------------------------------------------------------------
   |       |       |       |       |       |       |       |

  Odlucio sam da te
E|----------------<7>-------------<12>-----------------------------
H|------------<7>-----------------<12>-----------------------------
G|------<5>-----------------------<12>-----------------------------
D|-----------------------------------------------------------------
A|<5>--------------------------------------------------------------
E|-----------------------------------------------------------------
   |       |       |       |       |       |       |       |

  volim
E|---------------------5-----------------------5-------------------
H|-------8-------------------8-------------------------8-----------
G|-------------7-----------------------7---------------------------
D|-5---------------------------------------------------------------
A|-----------------------------------------------------------------
E|-----------------------------------------------------------------
   |       |       |       |       |       |       |       |

  i pustim prasinu da zivi dok je ne zaprosi
E|----------------<7>-------------<12>-----------------------------
H|------------<7>-----------------<12>-----------------------------
G|------<5>-----------------------<12>-----------------------------
D|-----------------------------------------------------------------
A|<5>--------------------------------------------------------------
E|-----------------------------------------------------------------
   |       |       |       |       |       |       |       |

  vjetar (i prenese preko praga) od sada...
E|<12>--<12>--<12>--<12>----<12>--<12>--<12>--<12>-----------------
H|--<12>--<12>--<12>--<12>----<12>--<12>--<12>--<12>---------------
G|-----------------------------------------------------------------
D|-----------------------------------------------------------------
A|-----------------------------------------------------------------
E|-----------------------------------------------------------------
   |       |       |       |       |       |       |       |

  Da, sad gledam kroz tvoje oci, ti si
E|-0---------------------------------------------------------------
H|-1-------------------------------------------0-------------------
G|-0---------------------------------------2-----------------------
D|-2-----------------------------------2---------------------------
A|-3-------------------------------0-------------------------------
E|-----------------------------------------------------------------
   |       |       |       |       |       |       |       |

  nisan na licu moga andjela. Oprosti mi sto
E|-----------------------------------------------------------------
H|-----------------------------------------------------------------
G|---------0---------------0---------------0---------------0-------
D|-----0---------------0---------------2---------------0-----------
A|---------------------------------3---------------2---------------
E|-3---------------2-----------------------------------------------
   |       |       |       |       |       |       |       |

  odlazim, ja nikada ne
E|-----------------------------------------------------------------
H|-------------0---------------------------------------------------
G|---------2-------------------------------------------------------
D|-----2-----------------------------------------------------------
A|-0---------------------------------------------------------------
E|-----------------------------------------------------------------
   |       |       |       |       |       |       |       |

  ostajem.
E|-----------------------------------------------------------------
H|-7---------------------------------------------------------------
G|-7---------------------------------------------------------------
D|-9---------------------------------------------------------------
A|-7---------------------------------------------------------------
E|-----------------------------------------------------------------
   |       |       |       |       |       |       |       |

  Odlucio sam da te
E|----------------<7>-------------<12>-----------------------------
H|------------<7>-----------------<12>-----------------------------
G|------<5>-----------------------<12>-----------------------------
D|-----------------------------------------------------------------
A|<5>--------------------------------------------------------------
E|-----------------------------------------------------------------
   |       |       |       |       |       |       |       |

  volim (i onim cega se najvise bojim)
E|---------------------5-------------------------------------------
H|-------8-------------------8---------------------8-8|----8-8|----
G|-------------7-----------------------7-----------7-7|----7-7|----
D|-5-----------------------------------------------9-9|----9-9|----
A|-------------------------------------------------7-7|----7-7|----
E|-----------------------------------------------------------------
   |       |       |       |       |       |       |       |

  abortusom i atomskom bom-
E|-3-------3---3-3---3-3---3---3---1-------1---1-1---1-1---1---1---
H|-3-------3---3-3---3-3---3---3---1-------1---1-1---1-1---1---1---
G|-4-------4---4-4---4-4---4---4---2-------2---2-2---2-2---2---2---
D|-5-------5---5-5---5-5---5---5---3-------3---3-3---3-3---3---3---
A|-5-------5---5-5---5-5---5---5---3-------3---3-3---3-3---3---3---
E|-3-------3---3-3---3-3---3---3---1-------1---1-1---1-1---1---1---
   |       |       |       |       |       |       |       |

  -bom.
E|-0-------0---0-0---0-0---0---0-0---0-0---0---0-0---0-0---0---0---
H|-3-------3---3-3---3-3---3---3-3---3-3---3---3-3---3-3---3---3---
G|-0-------0---0-0---0-0---0---0-0---0-0---0---0-0---0-0---0---0---
D|-2-------2---2-2---2-2---2---2-2---2-2---2---2-2---2-2---2---2---
A|-2-------2---2-2---2-2---2---2-2---2-2---2---2-2---2-2---2---2---
E|-0-------0---0-0---0-0---0---0-0---0-0---0---0-0---0-0---0---0---
   |       |       |       |       |       |       |       |

  Ti i ja smo taoci
E|-3-------3---3-3---3-3---3---3---1-------1---1-1---1-1---1---1---
H|-3-------3---3-3---3-3---3---3---1-------1---1-1---1-1---1---1---
G|-4-------4---4-4---4-4---4---4---2-------2---2-2---2-2---2---2---
D|-5-------5---5-5---5-5---5---5---3-------3---3-3---3-3---3---3---
A|-5-------5---5-5---5-5---5---5---3-------3---3-3---3-3---3---3---
E|-3-------3---3-3---3-3---3---3---1-------1---1-1---1-1---1---1---
   |       |       |       |       |       |       |       |

  visina,
E|-0-------0---0-0---0-0---0---0-0---0-0---0---0-0---0-0---0---0---
H|-3-------3---3-3---3-3---3---3-3---3-3---3---3-3---3-3---3---3---
G|-0-------0---0-0---0-0---0---0-0---0-0---0---0-0---0-0---0---0---
D|-2-------2---2-2---2-2---2---2-2---2-2---2---2-2---2-2---2---2---
A|-2-------2---2-2---2-2---2---2-2---2-2---2---2-2---2-2---2---2---
E|-0-------0---0-0---0-0---0---0-0---0-0---0---0-0---0-0---0---0---
   |       |       |       |       |       |       |       |

  sve dok se zemlja ne oduzi
E|-3-------3---3-3---3-3---3---3---1-------1---1-1---1-1---1---1---
H|-3-------3---3-3---3-3---3---3---1-------1---1-1---1-1---1---1---
G|-4-------4---4-4---4-4---4---4---2-------2---2-2---2-2---2---2---
D|-5-------5---5-5---5-5---5---5---3-------3---3-3---3-3---3---3---
A|-5-------5---5-5---5-5---5---5---3-------3---3-3---3-3---3---3---
E|-3-------3---3-3---3-3---3---3---1-------1---1-1---1-1---1---1---
   |       |       |       |       |       |       |       |

oblacima, bez imalo sebe...
E|-0-------0---0-0---0-0---0---0-0---0-0---0---0-0---0-0---0---0---
H|-3-------3---3-3---3-3---3---3-3---3-3---3---3-3---3-3---3---3---
G|-0-------0---0-0---0-0---0---0-0---0-0---0---0-0---0-0---0---0---
D|-2-------2---2-2---2-2---2---2-2---2-2---2---2-2---2-2---2---2---
A|-2-------2---2-2---2-2---2---2-2---2-2---2---2-2---2-2---2---2---
E|-0-------0---0-0---0-0---0---0-0---0-0---0---0-0---0-0---0---0---
   |       |       |       |       |       |       |       |

  Da, sad gledam kroz tvoje oci, ti si
E|-0-----------------------0---------------------------------------
H|-1-----------------------1-------0-----------0-----------0-------
G|-0-----------------------0-------2-----------2-----------2-------
D|-2-----------------------2-------2-----------2-----------2-------
A|-3-----------------------3-------0-----------0-----------0-------
E|-----------------------------------------------------------------
   |       |       |       |       |       |       |       |

  nisan na licu moga andjela. Oprosti mi sto
E|-----------------------------------------------------------------
H|-----------------------------------------------------------------
G|---------0---------------0---------------0---------------0-------
D|-----0---------------0---------------2---------------0-----------
A|---------------------------------3---------------2---------------
E|-3---------------2-----------------------------------------------
   |       |       |       |       |       |       |       |

odlazim,
E|-----------------------------------------------------------------
H|-0---------------------------------------------------------------
G|-2---------------------------------------------------------------
D|-2---------------------------------------------------------------
A|-0---------------------------------------------------------------
E|-----------------------------------------------------------------
   |       |       |       |       |       |       |       |

  Da, sad gledam kroz tvoje oci, ti si
E|-0-----------------------0---------------------------------------
H|-1-----------------------1-------0-----------0-----------0-------
G|-0-----------------------0-------2-----------2-----------2-------
D|-2-----------------------2-------2-----------2-----------2-------
A|-3-----------------------3-------0-----------0-----------0-------
E|-----------------------------------------------------------------
   |       |       |       |       |       |       |       |

nisan na licu moga andjela. Oprosti mi sto
E|-----------------------------------------------------------------
H|-----------------------------------------------------------------
G|---------0---------------0---------------0---------------0-------
D|-----0---------------0---------------2---------------0-----------
A|---------------------------------3---------------2---------------
E|-3---------------2-----------------------------------------------
   |       |       |       |       |       |       |       |

odlazim, ja nikada ne
E|-----------------------------------------------------------------
H|-0---------------------------------------------------------------
G|-2---------------------------------------------------------------
D|-2---------------------------------------------------------------
A|-0---------------------------------------------------------------
E|-----------------------------------------------------------------
   |       |       |       |       |       |       |       |

  ostajem.
E|----------------<7>-------------<12>-----------------------------
H|------------<7>-----------------<12>-----------------------------
G|------<5>-----------------------<12>-----------------------------
D|-----------------------------------------------------------------
A|<5>--------------------------------------------------------------
E|-----------------------------------------------------------------
   |       |       |       |       |       |       |       |


E|<12>--<12>--<12>--<12>----<12>--<12>--<12>--<12>-----------------
H|--<12>--<12>--<12>--<12>----<12>--<12>--<12>--<12>---------------
G|-----------------------------------------------------------------
D|-----------------------------------------------------------------
A|-----------------------------------------------------------------
E|-----------------------------------------------------------------
   |       |       |       |       |       |       |       |


E|----------------<7>-------------<12>-----------------------------
H|------------<7>-----------------<12>-----------------------------
G|------<5>-----------------------<12>-----------------------------
D|-----------------------------------------------------------------
A|<5>--------------------------------------------------------------
E|-----------------------------------------------------------------
   |       |       |       |       |       |       |       |


E|<12>--<12>--<12>--<12>----<12>--<12>--<12>--<12>-----------------
H|--<12>--<12>--<12>--<12>----<12>--<12>--<12>-<121212121212121212>
G|-----------------------------------------------<1212121212121212>
D|-----------------------------------------------<1212121212121212>
A|-----------------------------------------------------------------
E|-----------------------------------------------------------------
   |       |       |       |       |       |       |       |

  (prvi solo; koristi wah-pedalu)
E|-----------------------------------------------------------------
H|15v~~~~~~~~~-15v~~~~~~~~-15bb17--15v~~~~~~~~-15v~~~~~~~~-15bb17--
G|-----------------------------------------------------------------
D|-----------------------------------------------------------------
A|-----------------------------------------------------------------
E|-----------------------------------------------------------------
   |       |       |       |       |       |       |       |


E|-----------------------------------------------------------------
H|15v~~~~~~~~~-15v~~~~~~~~-15v~~~~-15--12h15--12h15--12h15p12h15p12
G|-----------------------------------------------------------------
D|-----------------------------------------------------------------
A|-----------------------------------------------------------------
E|-----------------------------------------------------------------
   |       |       |       |       |       |       |       |


E|-----------------------------------------------------------------
H|-----------------------------------------------------------------
G|12v~~~~~~~~~-12v~~~~~~~~-12v~~~~-12v~~~~~~~~-12v~~~~~~~~-12v~~~~-
D|-----------------------------------------------------------------
A|-----------------------------------------------------------------
E|-----------------------------------------------------------------
   |       |       |       |       |       |       |       |


E|-----------------------------------------------------------------
H|19v~~~~~~~~~-19v~~~~~~~~-19v~~~~-19v~~~~~~~~-19v~~~~~~~~-19\\\\\-
G|-----------------------------------------------------------------
D|-----------------------------------------------------------------
A|-----------------------------------------------------------------
E|-----------------------------------------------------------------
   |       |       |       |       |       |       |       |

  Da, sad gledam kroz tvoje oci, ti si
E|-0-----------------------0---------------------------------------
H|-1-----------------------1-------0-----------0-----------0-------
G|-0-----------------------0-------2-----------2-----------2-------
D|-2-----------------------2-------2-----------2-----------2-------
A|-3-----------------------3-------0-----------0-----------0-------
E|-----------------------------------------------------------------
   |       |       |       |       |       |       |       |

  nisan na licu moga andjela. Oprosti mi sto
E|-----------------------------------------------------------------
H|-----------------------------------------------------------------
G|---------0---------------0---------------0---------------0-------
D|-----0---------------0---------------2---------------0-----------
A|---------------------------------3---------------2---------------
E|-3---------------2-----------------------------------------------
   |       |       |       |       |       |       |       |

odlazim,
E|-----------------------------------------------------------------
H|-0---------------------------------------------------------------
G|-2---------------------------------------------------------------
D|-2---------------------------------------------------------------
A|-0---------------------------------------------------------------
E|-----------------------------------------------------------------
   |       |       |       |       |       |       |       |

  Da, sad gledam kroz tvoje oci, ti si
E|-0-----------------------0---------------------------------------
H|-1-----------------------1-------0-----------0-----------0-------
G|-0-----------------------0-------2-----------2-----------2-------
D|-2-----------------------2-------2-----------2-----------2-------
A|-3-----------------------3-------0-----------0-----------0-------
E|-----------------------------------------------------------------
   |       |       |       |       |       |       |       |

nisan na licu moga andjela. Oprosti mi sto
E|-----------------------------------------------------------------
H|-----------------------------------------------------------------
G|---------0---------------0---------------0---------------0-------
D|-----0---------------0---------------2---------------0-----------
A|---------------------------------3---------------2---------------
E|-3---------------2-----------------------------------------------
   |       |       |       |       |       |       |       |

odlazim, ja nikada ne
E|-----------------------------------------------------------------
H|-0---------------------------------------------------------------
G|-2---------------------------------------------------------------
D|-2---------------------------------------------------------------
A|-0---------------------------------------------------------------
E|-----------------------------------------------------------------
   |       |       |       |       |       |       |       |

  ostajem.
E|----------------<7>-------------<12>-----------------------------
H|------------<7>-----------------<12>-----------------------------
G|------<5>-----------------------<12>-----------------------------
D|-----------------------------------------------------------------
A|<5>--------------------------------------------------------------
E|-----------------------------------------------------------------
   |       |       |       |       |       |       |       |


E|<12>--<12>--<12>--<12>----<12>--<12>--<12>--<12>-----------------
H|--<12>--<12>--<12>--<12>----<12>--<12>--<12>--<12>---------------
G|-----------------------------------------------------------------
D|-----------------------------------------------------------------
A|-----------------------------------------------------------------
E|-----------------------------------------------------------------
   |       |       |       |       |       |       |       |


E|----------------<7>-------------<12>-----------------------------
H|------------<7>-----------------<12>-----------------------------
G|------<5>-----------------------<12>-----------------------------
D|-----------------------------------------------------------------
A|<5>--------------------------------------------------------------
E|-----------------------------------------------------------------
   |       |       |       |       |       |       |       |


E|<12>--<12>--<12>--<12>----<12>--<12>--<12>--<12>-----------------
H|--<12>--<12>--<12>--<12>----<12>--<12>--<12>-<121212121212121212>
G|-----------------------------------------------------------------
D|-----------------------------------------------------------------
A|-----------------------------------------------------------------
E|-----------------------------------------------------------------
   |       |       |       |       |       |       |       |


(Zadnji solo mi se neda pisat pa ga sami skinite, nije tezak.)