Damir Urban - Ruke

Transkripcija: Marko M


akordi
    Em  Em7    Em6   Emadd13-  Hm7    A     G    F#
e|--0----0------0-----0---------2-----0-----3-----2-
H|--0----3------2-----1---------3-----2-----3-----2-
G|--0----0------0-----0---------2-----2-----4-----3-
D|--2----2------2-----2---------4-----2-----5-----4-
A|--2----2------2-----2---------2-----0-----5-----4-
E|--0----0------0-----0---------------------3-----2-

Uvod
e|---------------------------------------------
H|---------------------------------------------
G|---7^9---11--12--12--12^14~--17--16----------
D|---------------------------------------------
A|---5^7---9---10--10--10^12~--15--14----------
E|---------------------------------------------

e|-------------------------------0~~-----------
H|-------------------------------0~~-----------
G|---7^9---11--12--2--2^4--------0~~-----------
D|-------------------------------2~~-----------
A|---5^7---9---10--4--4^6--------2~~-----------
E|-------------------------------0~~-----------



Em7             Em6                   Emadd13-         Em
Tisucu malih bogova silaze nocas skriveni u kisnim kapima.

D|----0-0-0-0-0^2----]

Em7             Em6                  Emadd13-       Em
Na moje lice padaju kao da se igraju zivota u koraku.

Em7            Em6                   Emadd13-             Em
Smisljam pravu rec za ono sto se naziva lepota tvojih ociju.

Em7              Em6                  Emadd13-                 Em
Medju prste zapetljan zadnje cigarete dim cuva me od mene samoga.



   Hm7          A
A ja ruke prodajem
                  G
Prvom sto me dotakne
                Em
I udari poljubcem


Uvod...................



Em7             Em6                   Emadd13-         Em
Tisucu malih bogova silaze nocas skriveni u kisnim kapima.

D|----0-0-0-0-0^2----]

Em7             Em6                  Emadd13-       Em
Na moje lice padaju kao da se igraju zivota u koraku.



   Hm7          A
A ja ruke prodajem
                  G
Prvom sto me dotakne
                F#
I udari poljubcem


Neka mi, neka mi
Hm7
Vijetar s' juga
                  A
Osmijeh vrati na lice
            G                   F#
Kao da me nikad nije, nije bilo tu.


itd...