Darko Rundek - Bi Mogo Da Mogu - Bass

Transkripcija: Krizia Krizia00@hotmail.com


Uvod:
G|-----|----------------|--------
D|-----|----------------|--------
A|--2--|--2/5-3---------|--2-----   2X
E|-----|---------5--3---|--------

Prelaz u Refren:
G|----------------------------------------------------------
D|----------------------------------------------------------
A|--2--------2-------------------2--------2-----------------
E|-----5--3-----5--3---3-3--5-5-----5--3-----5--3--3-3--5-5-

Refren:
G|----------------------------------------------------------
D|----------------------------------------------------------
A|--2------------2-----------2-----------2------------------
E|-----3--333-5-----3-333-5-----3-333-5-----3-333-5---------

G|----------------------------------------------------------
D|----2--4------2--4---5--5-5-4----2--4------2--4-----------
A|--2-------2-2------------------2-------2-2----------------
E|----------------------------------------------------------

Verse:
G|----------------------------------------------------------
D|----2--4------2--4----------2--4------2--4----------------
A|--2-------2-2-------------2-------2-2---------------------
E|--------------------3--3----------------------------------2X

G|----------------------------------------------------------
D|--------------2--4------2--4----------2--4------2--4------
A|------------2-------2-2-------------2-------2-2-----------
E|--3--0h3-5--------------------3--3--------------------3---

(*Prelaz u Refren*)

Refren 2:
G|----------------------------------------------------------
D|----------------------------------------------------------
A|--2-0-2-2---------------2-0--2-2--------------------------
E|-----------3--333-3--5------------------------------------
-

Kraj:
G|----------------------------------------------------------
D|----2--5-5-4-----444-2-4----2--4-4------------------------
A|--2----------------------2--------------------------------
E|--------------3-------------------------------------------

G|----------------------------------------------------------
D|----444-2-4----2--555-4-----2h4---------------------------
A|-------------2--------------------------------------------
E|--3----------------------3--------------------------------

G|----------------------------------------------------------
D|-----2h4-----4-4-2-4--------------------------------------
A|--2-------------------------------------------------------
E|----------3-----------------------------------------------

(*Refren*)

!!!Uzivajte!!!