Darko Rundek - Bi Mogo Da Mogu

Transkripcija: Ivan Djacic (djacic@yahoo.com)
Home         : http://2akordi.net


uvod: Hm

Hm                     A
Uvijek sam, a nikad do kraja
Hm                 A
Vecer u gradu ti donese neki lijek
        Hm                      A   Hm A
U nekom kutu gdje samoca se zbraja

Uvijek s malo, premalo para
Kad upale se svjetla, ode dim
A miris noci opet postaje stvaran

preref:
Hm A G
     Ko mnogo puta do sada
Hm A G
     On sanja
Hm A G              Hm   A G
     Kako beskrajno pada

ref:
        Hm                     G
Bilo je rano jutro tada kad je ostavio sve
        Hm                   G
Culo se samo kako ptice pjevaju
        Hm                      G
Onda je stajao jos dugo s druge strane ulice
       Hm                     G
Pustio suze da se same slijevaju

< solo = ref >
< strofa 1, 2 >
< preref >
< ref >

ref 2:
               Hm   A
Ja bi mog'o da mogu
              Hm   A
Ja bi znao da znam
               Hm   A
Ja bi mog'o da mogu
              Hm   A
Ja bi znao da znam

< solo = ref 2 >
< ref >
< ref 2 >

                 ^  ^
/--------------( *  * )---------------\
|=====================================|
|        < DjAkOn   StRaSnI >         |
|          djacic@yahoo.com           |
\-------------------------------------/
 

***VERZIJA 2***
Transkripcija: rincewind


Uvijek sam a nikad do kraja...
|-X--------------------|-X--------------------|
|-X--------------------|-X--------------------|
|-X--------------------|-X--------------------|
|-X--11h12p11----------|-X--11h12p11----------|
|-X-----------12-9-----|-X-----------12-14----|
|-X--------------------|-X--------------------|

K'o mnogo puta do sada on sanja...          x2
|-------------------X-------------------------|
|-------------------X-------------------------|
|-------------11----X-------------11--14--12--|
|-9--9-11-12-----9--X----9-11-12--------------|
|-------------------X-------------------------|
|-------------------X-------------------------|

Bilo je rano jutro tada kad je ostavio sve...
                         X3.5
|----------------------------|
|----------------------------|
|----------------------------|
|-9~~~-12-11----12--11-9-11--|
|----------------------------|
|----------------------------|


Uvijek sam a nikad do kraja...
|----------------------------|----------------------------|
|----------------12-15-------|----------------12-15--14---|
|-11-11-11-11-11-------------|-11-11-11-11-11-------------|
|----------------------------|----------------------------|
|----------------------------|----------------------------|
|----------------------------|----------------------------|

Ja bi mogo da mogu, ja bi znao da znam
|---------------------------------------------------------|
|---------------------------------------------------------|
|-------11--12--11--------11--12--11------11~~~~~~~~~~~~--|
|-12h14-------------12h14-------------14------------------|
|---------------------------------------------------------|
|---------------------------------------------------------|