Darko Rundek - Ista Slika

Transkripcija: ???
Album        : Ruke, 2002


bas koji ide kroz cijelu pjesmu:
        (B)        (G#)
g------------/----------------------
d------------/----------------------
a-----6-8----/-----4-6-------4-6----
e--6-------8-/--4------6--4------4--
      4x

(ovi akordi se ne sviraju nego ide samo bas)
   B
Po ko zna koji put u zivotu
u svojoj ludoj glavi gledas istu sliku
   B
Po ko zna koji put u zivotu
u svojoj ludoj glavi gledas istu sliku
G#                          B
Crni jahaci su stigli u selo
G#                           B
Crvene kapi su pale na bijelo

2x
e----6-----6-6-6---------6-6-6---------
h----------------9-6-9---------9-6-9---
g--------------------------------------
d--8-----------------------------------
a--------------------------------------
e--------------------------------------

2x
e-----------10-10-10-8----8------8-10-8---------
h-----9----------------11---9-11--------11-9-11-
g-----------------------------------------------
d-----------------------------------------------
a--11-------------------------------------------
e-----------------------------------------------

Po ko zna koji put u zivotu
u tvojoj ludoj glavi on te opet gleda
Po ko zna koji put u zivotu
usred tvojih misli raste stup od leda
Crvene kapi su pale na bijelo
Silazi vjetar i odnosi tijelo

Umorno drustvo se srelo i sjelo
Ruze je donijela zena pod velom

   B
e-----------------------------------
a-----------------------------------
g--------8p7------------------------
d--6-8-6-----8-10-6---6-------------
a-------------------8---8p6-5-------
e-----------------------------------

   B
e-----------------------------------
a-----------------------------------
g--------8p7------------------------
d--6-8-6-----8-10-6----6---5---6----
a-------------------8----8-------8--
e-----------------------------------

   G#
e-----------------------------------
h-----------------------------------
g-----------------------------------
d----6------------------------------
a--6--------------------------------
e-----------------------------------

   B                           G#   B
e-----------------------------------
a-----------------------------------
g--------8p7------------------------
d--6-8-6-----8-10-6---6-----------8-
a-------------------8---8--6----8---
e-----------------------------------


G#                          B
Vesele muhe su sjele na celo
G#                              B
Gorak za sjecanje sladak za jelo