Darko Rundek - Makedo

Transkripcija: pipss@mail.ru
               raco yes (francuski dio teksta)
Album        : Ruke 2002
Info         : Za melodiju/solo E prirodni mol.


Em                    D
Trazio sam na vrhu planine,
          C                  Em
andjele visine, da mi kazu ime.

Trazio sam u dubini mora,
odavno zaboravljenu tajnu plime.

D                       Em
A, pogledaj sto sam nasao,
D                   Em
prevrcuci raj i pakao,
D                      Em
divlje kose, tamna oka dva,
D               Em
cvijet bez korjena,
D               C
ples je sve sto zna.

G          D
O...tko te k meni poslao,
                           Em
da mi andjelima kvaris posao.

G       D
E...dit moi qui t`ai envoier,
                                Em
pour emeche mes anges de travailer.


***VERZIJA 2***
Transkripcija: Adis Salihbegovic - Aran

     Em                               D             Em  D    Em           
E||--7h5--------------------------5-6-7h5------------------------|
B||------8-7h8h7-5---5--5---5-7-8---------8-7h8h7-5---5----7---5-|
G||----------------7------7-------------------------7----7---7---|
D||--------------------------------------------------------------|
A||--------------------------------------------------------------|
E||--------------------------------------------------------------|
                                                           2 puta
                          Ritam gitara samo po jednom okida akord

  D                                                 
--7h5---------------------7h5---------------------|
------8-7-5---------5-7-8-----8-7-5---------5-7-8-|
------------7-7-6-7-----------------7-7-6-7-------|
--------------------------------------------------|
--------------------------------------------------|
--------------------------------------------------|na ovoj dionoci ritam gitara
                                                    pocinje da svira 7/8


  Em                               D           Em    D      Em
--7h5--------------------------5-6-7h5------------------------|
------8-7h8h7-5---5--5---5-7-8---------8-7h8h7-5---5----7---5-|
----------------7------7-------------------------7----7---7---|
--------------------------------------------------------------|
--------------------------------------------------------------|
--------------------------------------------------------------|
                                                        2 puta

Dionicu svira violina, pa je najbolje radi dobijanja pribliznog
zvuka svirat sa blagim overdrajvom i tonom koji vuce na meki bluz. 

Ritam gitara svira 7/8