Darko Rundek - Neobican Dan

Transkripcija: ivan3, a38@net.hr
Autor        : Srdjan Sacher
Album        : Treci svijet (1984.)


Bas intro:
G|------------------------------|----------------------------|
D|-2-2--2-----------------------|----------------------------|
A|------------------------------|---------4-------5/-------4-|
E|--------1-1--1-2-2-2-2-2-2-2\-|-5----------------------5---|

G|------------------------------|----------------------------|
D|-.--.--.--.--3--4-4-4-4-4--3--|----------------------------|
A|-5--5--5--5-------------------|---------4-------5/-------4-|
E|------------------------------|-5----------------------5---|

G|------------------------------|
D|-.--.--.--.-------------------|
A|-5--5--5--5--8\---------------|
E|------------------------------|

F#m        Hm
Na biciklu vozim Nenu
E     C#7/F   F#m
Ulice pune se rupama
Prezivjelih nema, druze
Ulice pune su zrtava.

A  C#        Hm
O oo, tko ce shvatiti to
E        C#7/F    F#m
Ljevica, desnica, centralno
O oo, tko ce shvatiti to
Ljevica, desnica

Muskarci se slabo peru
Ti, ja i Baraba
U zvijezdu me vuku sluge
Begemot, Asmedaj, Amadona

O oo, ko ce shvatiti to
Gledam te zelenim ocima
O oo, ko ce shvatiti to
Gledam te zelenim ocima.

Refren:
F#m      D#m  E   C#7/F   F#m
Neobican dan,   neobican dan
Neobican dan,   neobican dan

Refren (bez rijeci)

2.strofa (bez rijeci)

Zacudeni djecaci sapcu:
Gore je, dolje je, nema ga
Nema ga

O oo
Nema ga
O oo
Nema ga

Refren

Na biciklu vozim Nenu ...
O oo tko ce shvatiti to ...

Refren 2x

--------------------------------------------------
Slijed akorda:

E     xx245x  x 7 9 9 x x
C#7/F xx346x  x 8 9 10 x x
F#m   xx467x  x 9 11 11 x x