Darko Rundek - Put U Sumrak

Transkripcija: pipss@mail.ru
Album        : Migracijske price i ljubavne pjesme (2006)


Bass tema/uvod/strofe: x puta
 Cm7                    Fm7     Bb7
----------------------|----------------------|
----------------------|----------------------|
----------------------|----------------------|
-------------------5--|-3----3---------------|
-3-3---3-3---5-6------|---------5-5--5-5/-5/-| 1/2 tona
----------------------|----------------------| slide up
 Cm7                    Fm7     Bb7
----------------------|----------------------|
----------------------|----------------------|
----------------------|----------------------|
-------------------5--|-3--------------------|
-3-3---3-3---5-6------|----------------------|
----------------------|----------------------|


Cm7
Poci cemo izvan grada,
Fm7        Bb7      Cm7    Fm7 Bb7
krecemo na put u sumrak.
Cm7
Zavjesa od kise pada,
Fm7      Bb7     Cm7       Fm7 Bb7
drvoredi piju sumrak.


Fm7                Cm7
Biti daleko od tih divnih ljudi,
Fm7               Cm7
sto su zaboravili smijeh,
Fm7               Cm7
a nama nek se u otsustvu sudi,
Fm7                    Abdim     G(7)      Cm7
jer mi smo posli zauvije__________k... u sumrak.

TEMA: x puta

Otisli smo iznenada,
ne znamo sto nosi sutra.
Blijedo svjetlo listopada,
zute pumpe pored puta.

I svako novo jutro dok nas budi,
polako zamesti ce trag.
Misli ne priznaju, al' srce sluti,
da ovaj dugi let je pad... u sumrak.


INSTR:(pratnja::bass riff) x2

----6-6--6-6-6-6--6/5--5-5-5-5-|-5/3--3-3-3-3--3------------|
-------------------------------|-----------------6--6-6-6-4-|
-5-----------------------------|----------------------------|
-------------------------------|----------------------------|
-------------------------------|----------------------------|
-------------------------------|----------------------------|

-------------------------------|----------------------------|
-6-4~-------------4-4-4-4--4/3-|-3-3-3-3--3-----------------|
-------------------------------|------------5---5-5--3--5~--|
-------------------------------|----------------------------|
-------------------------------|----------------------------|
-------------------------------|----------------------------|

+
|Cm     |Cmmaj7  |Cm7    |G      | x2


Poci cemo izvan grada,
krecemo na put u sumrak.
Zavjesa od kise pada,
drvoredi piju sumrak.

I svako novo jutro dok nas budi,
polako zamesti ce trag.
Misli ne priznaju, al' srce sluti,
da ovaj dugi let je pad... u sumrak.

...