Darko Rundek - Zvuk Oluje

Transkripcija: Garcia


       Dm    A7    Dm
Zagreb sniva divan san
    F     C     F
daleko je Amsterdam
    Dm    C     B    A7
Daleko su Capri Pajo Mirna
Gm  A7 Dm
Jinx i Jasmina

Tihe su oranice
s druge strane granice
  ali zvuk oluje
  cujes samo ti        2x

nitko nema nikada
sto bi da mu pripada
nema kruha, nema vina
nema godina

ljuljaju se zavese
da ti kisu navjeste
  ali zvuk oluje
  cujes samo ti        2x



***Ne mogu tacno da odredim kada gitara svira razlaganje
a kada valcer, tako da se sa time mozete igrati. Obicno sviram
prve dve strofe razlaganje, pa predjem u valcer.



Ovako ja sviram razlaganje:

  Dm      A7      Dm
-|-------|-------|-------1-|-
-|-----3-|-----2-|-----3---|-
-|---2---|---0---|---2-----|-
-|-0-----|-2-----|-0-------|-
-|-------|-------|---------|-
-|-------|-------|---------|-

  F       C       F
-|-------|-------|-------1-|-
-|-----1-|-----1-|-----1---|-
-|---2---|---0---|---2-----|-
-|-3-----|-2-----|-3-------|-
-|-------|-------|---------|-
-|-------|-------|---------|-

  Dm      C       B       A7
-|-------|-------|-------|-------|-
-|-----3-|-----1-|-----3-|-----2-|-
-|---2---|---0---|---3---|---0---|-
-|-0-----|-2-----|-3-----|-2-----|-
-|-------|-------|-------|-------|-
-|-------|-------|-------|-------|-

  Gm      A7      Dm
-|-------|-------|-------1-|-
-|-----3-|-----2-|-----3---|-
-|---3---|---0---|---2-----|-
-|-5-----|-2-----|-0-------|-
-|-------|-------|---------|-
-|-------|-------|---------|-