Davorin Popovic - Krivac Si Ti

Transkripcija: ivan3,  a38@net.hr



                 A                       F
         |-------0--0--------------------1--1---|
         |-------2--2--------------------1--1---|
 Intro:  |---0-1-2--2--------0-----------2--2---|
         |-2-----2--2----0h2---2-0---0---3--3---|
         |-------0--0--------------3---3-3--3---|
         |-------------------------------1--1---|
                  D                      E7/#9
|-----------------2--2--------------------------|
|-----------------3--3----------------------8---|
|-----0-----------2--2-------0--------------7---|
|-0h2---2-0---0---0--0---0h2---2-0---0------6---|
|-----------3---3------------------3---3----7---|
|----------------------------------------0------|


Verse Riff:
|-------------------------------------------|
|---------------------------7p5----5--------|
|---------------------------7p5----5-h6-----|
|-------------------------------7--------7--| itd., komplikacija ...
|-----------x-x-5h7--3b.25------------------|
|-x--x-3h5----------------------------------|



A           D    C     A     D-C
Kazes da su dani tvoji svi
A           D            C    A    D-C
Uvijek tako prazni, tako dosadni
D
A ne cinis nista
C
Uvijek istu pricu pricas
G
I ne zelis shvatit
   F      G      A     D
da sam za sve si kriv
          A   C  D
Krivac si ti


Kada netko tvrdi da si lud
Onda samo klimnes glavom i to je sve
A ne cinis nista
Uvijek istu pricu pricas
I ne zelis shvatit
Da sam za sve si kriv
          A
Krivac si ti
          H
Krivac si ti...


Refren: (2x)
E          D
Zivot nece cekat, znaj
A            H
Dok ti dodes pameti
Dani brzo prolaze
Vrijeme mladost odnosi
Treba sve uciniti
Nista ne propustiti
Zivot treba zivjeti
On te nece cekati