Davorin Popovic - Sanjam

Transkripcija: polly


uvod:
Em,D/F#,G,Am,H7,Em

Em           D               G
Sanjam da te opet slusam kako dises
     Am        D        G
kako dises dok savija se trava
      Am   H7          Em/D
da me dira tvoja kosa plava
      Cmaj7   D           Em
tvoja kosa na mom licu, draga

Sanjam da se opet volimo u klasju
u tom klasju sto lezi tu, pod nama
i da luta tvoja ruka vrela
tvoja ruka preko moga tijela

G                       C        G
Samo jedan zivot imam i ludo ga bacam
C             G           D        G
jer zavoljeh jednu zenu, zenu koju sanjam

Samo jedan zivot imam koji nisam htio
jer zavoljeh jednu zenu koju nisam smio

Sanam da ti kazem 'vrati mi se, draga'
ako treba, pobjegni od svega
jer je zivot samo jedan
nema nista, nista izvan njega


***VERZIJA 2***
Transkripcija: Ekipa
Home         : http://www.geocities.com/Nashville/Stage/2457

Em           Am   D           G
Sanjam da te opet slusam kako dises
     Am        D         G      
Kako dises dok savija se trava
      Am   H          Em 
Da me dira tvoja kosa plava
      C    H           Em
Tvoja kosa na mom licu draga

Sanjam da se opet volimo u klasju
U tom klasju sto lezi tu pod nama
I da luta tvoja ruka vrela
Tvoja ruka preko moga tijela

    G                     C         G
    Samo jedan zivot imam i ludo ga bacam
    C           G           D         G  
    Jer zavoleh jednu zenu, zenu koju sanjam
    G                      C          G
    Samo jedan zivot imam, koji nisam htio
    C            G          D          G
    Jer zavoljeh jednu zenu koju nisam smio

    Samo jedan zivot imam i ludo ga bacam
    Jer zavoleh jednu zenu, zenu koju sanjam
    Samo jedan zivot imam, koji nisam htio
    Jer zavoljeh jednu zenu, zenu koju sanjam

Sanjam da ti kazem "Vrati mi se draga"
Ako treba pobegni od svega
Jer je zivot samo ovaj jedan
Nema nista, nista izvan njega


***VERZIJA 3***
Transkripcija: Skabo


UVOD:
  Em                        D                        Em7
E------------------------7----------5-----5-----7-8--------------7-----7-----8-10-
H-------7-8-----8-----10----------8---7-----7-----------8-----10---8-----8--------
G-----9-----9-----9-------------7-------7-----7-----------7----------7-----7------
D---9---------9-----9---------7-----------------------------9---------------------
A-7-------------------------5------------------------7----------------------------
E---------------------------------------------------------------------------------

  Am            H7
E-5-----7-8------------7--------
H---5-------8----------7--------
G-----5----------------8--------
D--------------------7----------
A------------------9------------
E----------------7-------------


***VERZIJA 4***
Transkripcija: Bajramovic Dino (bajramd@yahoo.com)
URL          : www.radnovrijeme.cjb.net


Razlaganje na pocetku i u toku pjesme je Em i ide otprilike
na ovaj fazon....

   Em
e:-------------------------------------------------------------
B:-----------7--8------------8--10--8-----------8--10----------
G:--9-----9---------9-----9------------9-----9---------9-----9- itd.
D:-----9---------------9------------------9---------------9----
A:-------------------------------------------------------------
E:-------------------------------------------------------------



***VERZIJA 5***
Transkripcija: ParadoX

   e-mol
hvata se kao i d-mol
samo za dva polja vise     Ddur/bare/   a-mol/bare/prve 4 zice
--------2-3-----3---5---7----------5--5----7--8-----------------------
--5---5-----5-----0---0----7-----8------5-----------------------------
----4--------4---------------7-----------5----------------------------
--2-------2---2-5---5---5-----7-------7----7--7-----------------------
---------------------------5-----5------------------------------------
----------------------------------------------------------------------
                                       brzo povuci prstom od 8 na 6
--------5--7-----7---8---10----------7-----8<==6----------------------
--8---8------8-----8--8-----10----10-------------8--7------8--10------
----7---------7--7-------------9----------------------8---------------
--5--------5----------------7-----------------------9---9--9--9-------
----------------------------------------------------------------------
----------------------------------------------------------------------
    e-mol
---------2-3----------------------------------------------------------
--5----------5--------------------------------------------------------
------4--------4------------------------------------------------------
----2-----------------------------------------------------------------
----------------------------------------------------------------------
----------------------------------------------------------------------

* ovo je idealna stvar za one koji vole klasicnu gitaru.
* created by:ParadoX


***VERZIJA 6***
Transkripcija: zelmatic - zelimir.matic@bj.t-com.hr


Solo pratnja: 2x
Em, F#m7 b5, H7, Em, C#m7 b5, F# 5#, F#7/E, Hm/D,
F#7/C#, Hm, E7/G#, Am, D#dim7,D7,Gmaj7, Cmaj7, Am7, H7, Em


***VERZIJA 7***
Transkripcija: lector


Solo:
E||--------------------|----------------------|--------------------|
B||--------------------|----------------------|--------------------|
G||--------------------|----------------------|-----------7~-------|
D||--------------7~----|--7----5--------------|--------------------|
A||------5~------------|------------8----7----|-----5--------------|
E||--------------------|----------------------|--------------------|

E||--------------------|----------------------|--------------------|
B||--------------------|----------------------|--------------------|
G||--9---7-------------|----------------------|-----------5--3~----|
D||-----------10---9---|--7----6--7--9--10----|--------------------|
A||--------------------|----------------------|----6--5------------|
E||--------------------|----------------------|--------------------|

E||--------------------|----------------------|--------------------|
B||--------------------|----------------------|--------------------|
G||--------------------|----------------------|--------------------|
D||--5-5-5--5-7-8------|--------8--7/---------|--------------------|
A||--------------------|-6--5----------8/-10--|---10-8-10----------|
E||--------------------|----------------------|--------------6--5--|

E||-------------------|
B||-------------------|
G||-------------------|
D||-----5~------------|
A||-------------------|
E||-------------------|