Davorin Popovic - Sve Ove Godine

Transkripcija: gliso - glisic.m@neobee.net


    uvod:
               G7     C          G7     C
G7  C 4x -------------------------------------
         -------------------------------------
         -------------------------------------
         --3-4-5--3-5----5--2-3-4-5--3-5------
         -------------3-----------------3-----
         -------------------------------------
                   G7     C          G7      C-Cmaj7
         -----------------------------------------
         -----------------------------------------
         -----------------------------------------
         --5--2-3-4-5--3-5---5--2-3-4-5--3-5------
         ------------------3------------------3-2-
         -----------------------------------------



Am                      D
jedna mala pjegava plava ne da mi mira
       G                   C           G  G#
uvijek kad je sretnem hoce nesto da mi da
Am                         D
kad je pitam sto bi mi dala nece da kaze
G                  C              G   G#
samo klimne glavom kao da bi dala sve

Am
idi mala idi sto prije
F7
jos si mlada vrijeme ti nije
D7                          G
idi mala prije no sto padne noc


G       C      G                C
sve ove godine dala bi za jednu noc
  G                C
a mene nikad ne bi imala
G                   C
jer ja moram drugoj poc 2x
Dm            G7    C   Cmaj7
jer ja moram drugoj poc



***VERZIJA 2***
Transkripcija: Ekipa
Home         : http://www.geocities.com/Nashville/Stage/2457


Am    
Jedna mala pjegava plava
D
Ne da mi mira
G                        C           G
Uvek kad je sretnem hoce nesto da mi da
 
Kad je pitam sto bi mi dala 
Nece da kaze
Samo klimne glavom kao da bi dala sve
 
Am
Idi mala, idi sto prije
F
Jos si mala. vrijeme ti nije
D                            G
Bjezi mala prije no to padne noc

    G       C      G                C
    Sve ove godine dala bi za jednu noc
       G                C
    Al mene nikad ne bi imala
    G                   C
    Jer ja moram drugoj poc


***VERZIJA 2***
Transkripcija: zvornicanin (sead_hadzigrahic@.com)


Uvod:
    G7   G7     C     C
E|--1---1-1-1---0---0-0-0-----------------
H|--0---0-0-0---1---1-1-1-----------------
G|--0---0-0-0---0---0-0-0----------------- Vise puta
D|--0---0-0-0---2---2-2-2-----------------
A|--2---2-2-2---3---3-3-3-----------------
E|--3-------------------------------------

E|-----------------------------------------------------------------
H|-----------------------------------------------------------------
G|-------0---------0------0---------0------0--------0----------0---
D|---2-3---------3-----------2-3-4------3-----------7--------------
A|-------------------3-----------------------3---------7-8-9-------
E|----------3-----------------------3--------------------------3---

E|-------------0--1-2-3----1-3-----------------------------|
H|-----------------------------1---------------------------|
G|-----0--------------0------------------------------------|
D|--3------------------------------------------------------|
A|-------3-------------------------------------------------|
E|-----------------------------------3--2--0---------------|

Info:
     Akordi se vec nalaze u arhivi,probajte da svirate i refren 
     sa G7 i C akordima zvuci fino.