Davorin Popovic - Ti Si Mi Bila Naj, Naj

Transkripcija: gliso - glisic.m@neobee.net


 G        D           Em        Em7
 ti si mi bila usvemu naj,naj,naj
 C    G        Am F#dim          G    G7
 i u dobru i u zlu i u dobru i u zlu, o o o
 C               G                  D       D7
 verovali ili ne,ti si meni sve,naj naj,naj naj
         G
 u svemu naj


 C            D          G    C         D           G
 svi mi drugi svoju tamu nude,a iz tebe sija vjecni sjaj
 C         D           Hm      Em      Am      D
 zato si u svemu za me naj,naj,naj naj-na-naj  naj-na-naj
         G
 u svemu naj

 
 solo:
  G              Em       C   G     Am
 -----------------------|-0-0-----3--------
 ----3------3-0---------|-----3-3---1-0----
 --0----0-2-----2-0-----|--------------2---
 -------------------4-2-|------------------
 -----------------------|------------------
 -----------------------|------------------
 C     G          D     Em  D
 --0-0---0---------------------------------
 ------3----0---------0--------------------
 -------------2-0-2--2--0-----2------------
 -------------------------4-2--------------
 ------------------------------------------
 ------------------------------------------